  0
SECTION
  2
HEADER
  9
$ACADVER
  1
AC1009
  9
$INSBASE
 10
0.0
 20
0.0
 30
0.0
  9
$EXTMIN
 10
-1968.23333333
 20
-1461.08333333
 30
0.0
  9
$EXTMAX
 10
2099.9
 20
1455.25
 30
0.0
  9
$LIMMIN
 10
-2095.3625
 20
-1552.21875
  9
$LIMMAX
 10
2227.02916667
 20
1546.38541667
  9
$ORTHOMODE
 70
       0
  9
$REGENMODE
 70
       1
  9
$FILLMODE
 70
       1
  9
$QTEXTMODE
 70
       0
  9
$MIRRTEXT
 70
       1
  9
$DRAGMODE
 70
       2
  9
$LTSCALE
 40
1.0
  9
$OSMODE
 70
       0
  9
$ATTMODE
 70
       1
  9
$TEXTSIZE
 40
0.2
  9
$TRACEWID
 40
0.05
  9
$TEXTSTYLE
  7
STANDARD
  9
$CLAYER
  8
0
  9
$CELTYPE
  6
CONTINUOUS
  9
$CECOLOR
 62
     256
  9
$DIMSCALE
 40
1.0
  9
$DIMASZ
 40
0.18
  9
$DIMEXO
 40
0.0625
  9
$DIMDLI
 40
0.38
  9
$DIMRND
 40
0.0
  9
$DIMDLE
 40
0.0
  9
$DIMEXE
 40
0.18
  9
$DIMTP
 40
0.0
  9
$DIMTM
 40
0.0
  9
$DIMTXT
 40
0.18
  9
$DIMCEN
 40
0.09
  9
$DIMTSZ
 40
0.0
  9
$DIMTOL
 70
       0
  9
$DIMLIM
 70
       0
  9
$DIMTIH
 70
       1
  9
$DIMTOH
 70
       1
  9
$DIMSE1
 70
       0
  9
$DIMSE2
 70
       0
  9
$DIMTAD
 70
       0
  9
$DIMZIN
 70
       0
  9
$DIMBLK
  1

  9
$DIMASO
 70
       1
  9
$DIMSHO
 70
       1
  9
$DIMPOST
  1

  9
$DIMAPOST
  1

  9
$DIMALT
 70
       0
  9
$DIMALTD
 70
       2
  9
$DIMALTF
 40
25.4
  9
$DIMLFAC
 40
1.0
  9
$DIMTOFL
 70
       0
  9
$DIMTVP
 40
0.0
  9
$DIMTIX
 70
       0
  9
$DIMSOXD
 70
       0
  9
$DIMSAH
 70
       0
  9
$DIMBLK1
  1

  9
$DIMBLK2
  1

  9
$DIMSTYLE
  2
STANDARD
  9
$DIMCLRD
 70
       0
  9
$DIMCLRE
 70
       0
  9
$DIMCLRT
 70
       0
  9
$DIMTFAC
 40
1.0
  9
$DIMGAP
 40
0.09
  9
$LUNITS
 70
       2
  9
$LUPREC
 70
       4
  9
$AXISMODE
 70
       0
  9
$AXISUNIT
 10
0.0
 20
0.0
  9
$SKETCHINC
 40
0.1
  9
$FILLETRAD
 40
0.0
  9
$AUNITS
 70
       0
  9
$AUPREC
 70
       0
  9
$MENU
  1
acad
  9
$ELEVATION
 40
0.0
  9
$PELEVATION
 40
0.0
  9
$THICKNESS
 40
0.0
  9
$LIMCHECK
 70
       0
  9
$BLIPMODE
 70
       1
  9
$CHAMFERA
 40
0.0
  9
$CHAMFERB
 40
0.0
  9
$SKPOLY
 70
       0
  9
$TDCREATE
 40
0.000000000
  9
$TDUPDATE
 40
0.000000000
  9
$TDINDWG
 40
0.0000000000
  9
$TDUSRTIMER
 40
0.0000000000
  9
$USRTIMER
 70
       1
  9
$ANGBASE
 50
0.0
  9
$ANGDIR
 70
       0
  9
$PDMODE
 70
       0
  9
$PDSIZE
 40
1.0
  9
$PLINEWID
 40
0.0
  9
$COORDS
 70
       1
  9
$SPLFRAME
 70
       0
  9
$SPLINETYPE
 70
       6
  9
$SPLINESEGS
 70
       8
  9
$ATTDIA
 70
       0
  9
$ATTREQ
 70
       1
  9
$HANDLING
 70
       1
  9
$HANDSEED
  5
552
  9
$SURFTAB1
 70
       6
  9
$SURFTAB2
 70
       6
  9
$SURFTYPE
 70
       6
  9
$SURFU
 70
       6
  9
$SURFV
 70
       6
  9
$UCSNAME
  2

  9
$UCSORG
 10
0.0
 20
0.0
 30
0.0
  9
$UCSXDIR
 10
1.0
 20
0.0
 30
0.0
  9
$UCSYDIR
 10
0.0
 20
1.0
 30
0.0
  9
$PUCSNAME
  2

  9
$PUCSORG
 10
0.0
 20
0.0
 30
0.0
  9
$PUCSXDIR
 10
1.0
 20
0.0
 30
0.0
  9
$PUCSYDIR
 10
0.0
 20
1.0
 30
0.0
  9
$USERI1
 70
       0
  9
$USERI2
 70
       0
  9
$USERI3
 70
       0
  9
$USERI4
 70
       0
  9
$USERI5
 70
       0
  9
$USERR1
 40
0.0
  9
$USERR2
 40
0.0
  9
$USERR3
 40
0.0
  9
$USERR4
 40
0.0
  9
$USERR5
 40
0.0
  9
$WORLDVIEW
 70
       1
  9
$SHADEDGE
 70
       3
  9
$SHADEDIF
 70
      70
  9
$TILEMODE
 70
       1
  9
$MAXACTVP
 70
      16
  9
$PINSBASE
 10
0.0
 20
0.0
 30
0.0
  9
$PLIMCHECK
 70
       0
  9
$PEXTMIN
 10
1.00000000E+20
 20
1.00000000E+20
 30
1.00000000E+20
  9
$PEXTMAX
 10
-1.00000000E+20
 20
-1.00000000E+20
 30
-1.00000000E+20
  9
$PLIMMIN
 10
0.0
 20
0.0
  9
$PLIMMAX
 10
12.0
 20
9.0
  9
$UNITMODE
 70
       0
  9
$VISRETAIN
 70
       0
  9
$PLINEGEN
 70
       1
  9
$PSLTSCALE
 70
       0
  9
$TREEDEPTH
 70
    3020
  9
$DWGCODEPAGE
  3
dos932
  0
ENDSEC
  0
SECTION
  2
TABLES
  0
TABLE
  2
VPORT
 70
       1
  0
VPORT
  2
*ACTIVE
 70
       0
 10
0.0
 20
0.0
 11
1.0
 21
1.0
 12
65.83333333
 22
-2.91666667
 13
0.0
 23
0.0
 14
1.0
 24
1.0
 15
0.0
 25
0.0
 16
0.0
 26
0.0
 36
1.0
 17
0.0
 27
0.0
 37
0.0
 40
3098.60416667
 41
1.39494799
 42
50.0
 43
0.0
 44
0.0
 50
0.0
 51
0.0
 71
       0
 72
     100
 73
       1
 74
       1
 75
       0
 76
       0
 77
       0
 78
       0
  0
ENDTAB
  0
TABLE
  2
LTYPE
 70
      28
  0
LTYPE
  2
CONTINUOUS
 70
      64
  3
Solid line
 72
      65
 73
       0
 40
0.0
  0
LTYPE
  2
HIDDENX2
 70
      64
  3
CADPAC LINETYPE
 72
      65
 73
       2
 40
168.0
 49
126.0
 49
-42.0
  0
LTYPE
  2
HIDDEN
 70
      64
  3
CADPAC LINETYPE
 72
      65
 73
       2
 40
126.0
 49
84.0
 49
-42.0
  0
LTYPE
  2
HIDDEN2
 70
      64
  3
CADPAC LINETYPE
 72
      65
 73
       2
 40
105.0
 49
63.0
 49
-42.0
  0
LTYPE
  2
DASHED
 70
      64
  3
CADPAC LINETYPE
 72
      65
 73
       2
 40
126.0
 49
84.0
 49
-42.0
  0
LTYPE
  2
DASHED2
 70
      64
  3
CADPAC LINETYPE
 72
      65
 73
       2
 40
94.5
 49
63.0
 49
-31.5
  0
LTYPE
  2
DASHEDX2
 70
      64
  3
CADPAC LINETYPE
 72
      65
 73
       2
 40
189.0
 49
126.0
 49
-63.0
  0
LTYPE
  2
DOTX2
 70
      64
  3
CADPAC LINETYPE
 72
      65
 73
       2
 40
52.5
 49
0.0
 49
-52.5
  0
LTYPE
  2
DOT
 70
      64
  3
CADPAC LINETYPE
 72
      65
 73
       2
 40
42.0
 49
0.0
 49
-42.0
  0
LTYPE
  2
DOT2
 70
      64
  3
CADPAC LINETYPE
 72
      65
 73
       2
 40
31.5
 49
0.0
 49
-31.5
  0
LTYPE
  2
CENTERX2
 70
      64
  3
CADPAC LINETYPE
 72
      65
 73
       4
 40
252.0
 49
105.0
 49
-52.5
 49
42.0
 49
-52.5
  0
LTYPE
  2
CENTER
 70
      64
  3
CADPAC LINETYPE
 72
      65
 73
       4
 40
193.2
 49
84.0
 49
-42.0
 49
25.2
 49
-42.0
  0
LTYPE
  2
CENTER2
 70
      64
  3
CADPAC LINETYPE
 72
      65
 73
       4
 40
134.4
 49
63.0
 49
-31.5
 49
8.4
 49
-31.5
  0
LTYPE
  2
DASHDOTX2
 70
      64
  3
CADPAC LINETYPE
 72
      65
 73
       4
 40
210.0
 49
105.0
 49
-52.5
 49
0.0
 49
-52.5
  0
LTYPE
  2
DASHDOT
 70
      64
  3
CADPAC LINETYPE
 72
      65
 73
       4
 40
168.0
 49
84.0
 49
-42.0
 49
0.0
 49
-42.0
  0
LTYPE
  2
DASHDOT2
 70
      64
  3
CADPAC LINETYPE
 72
      65
 73
       4
 40
126.0
 49
63.0
 49
-31.5
 49
0.0
 49
-31.5
  0
LTYPE
  2
DIVIDEX2
 70
      64
  3
CADPAC LINETYPE
 72
      65
 73
       6
 40
262.5
 49
105.0
 49
-52.5
 49
0.0
 49
-52.5
 49
0.0
 49
-52.5
  0
LTYPE
  2
DIVIDE
 70
      64
  3
CADPAC LINETYPE
 72
      65
 73
       6
 40
210.0
 49
84.0
 49
-42.0
 49
0.0
 49
-42.0
 49
0.0
 49
-42.0
  0
LTYPE
  2
DIVIDE2
 70
      64
  3
CADPAC LINETYPE
 72
      65
 73
       6
 40
157.5
 49
63.0
 49
-31.5
 49
0.0
 49
-31.5
 49
0.0
 49
-31.5
  0
LTYPE
  2
BORDERX2
 70
      64
  3
CADPAC LINETYPE
 72
      65
 73
       6
 40
367.5
 49
105.0
 49
-52.5
 49
105.0
 49
-52.5
 49
0.0
 49
-52.5
  0
LTYPE
  2
BORDER
 70
      64
  3
CADPAC LINETYPE
 72
      65
 73
       6
 40
294.0
 49
84.0
 49
-42.0
 49
84.0
 49
-42.0
 49
0.0
 49
-42.0
  0
LTYPE
  2
BORDER2
 70
      64
  3
CADPAC LINETYPE
 72
      65
 73
       6
 40
220.5
 49
63.0
 49
-31.5
 49
63.0
 49
-31.5
 49
0.0
 49
-31.5
  0
LTYPE
  2
PHANTOMX2
 70
      64
  3
CADPAC LINETYPE
 72
      65
 73
       6
 40
315.0
 49
105.0
 49
-42.0
 49
42.0
 49
-42.0
 49
42.0
 49
-42.0
  0
LTYPE
  2
PHANTOM
 70
      64
  3
CADPAC LINETYPE
 72
      65
 73
       6
 40
260.4
 49
84.0
 49
-42.0
 49
25.2
 49
-42.0
 49
25.2
 49
-42.0
  0
LTYPE
  2
PHANTOM2
 70
      64
  3
CADPAC LINETYPE
 72
      65
 73
       6
 40
222.6
 49
63.0
 49
-42.0
 49
16.8
 49
-42.0
 49
16.8
 49
-42.0
  0
LTYPE
  2
ACAD_ISO06W100
 70
      64
  3
CADPAC LINETYPE
 72
      65
 73
       8
 40
283.5
 49
105.0
 49
-52.5
 49
0.0
 49
-42.0
 49
0.0
 49
-42.0
 49
0.0
 49
-42.0
  0
LTYPE
  2
ACAD_ISO13W100
 70
      64
  3
CADPAC LINETYPE
 72
      65
 73
       8
 40
336.0
 49
84.0
 49
-42.0
 49
84.0
 49
-42.0
 49
0.0
 49
-42.0
 49
0.0
 49
-42.0
  0
LTYPE
  2
ACAD_ISO14W100
 70
      64
  3
CADPAC LINETYPE
 72
      65
 73
       8
 40
252.0
 49
84.0
 49
-42.0
 49
0.0
 49
-42.0
 49
0.0
 49
-42.0
 49
0.0
 49
-42.0
  0
ENDTAB
  0
TABLE
  2
LAYER
 70
       8
  0
LAYER
  2
0
 70
       0
 62
       7
  6
CONTINUOUS
  0
LAYER
  2
LAYER0001
 70
       0
 62
       7
  6
CONTINUOUS
  0
LAYER
  2
LAYER0002
 70
       0
 62
       7
  6
CONTINUOUS
  0
LAYER
  2
LAYER0004
 70
       0
 62
       7
  6
CONTINUOUS
  0
LAYER
  2
LAYER0005
 70
       0
 62
       7
  6
CONTINUOUS
  0
LAYER
  2
LAYER0016
 70
       0
 62
       7
  6
CONTINUOUS
  0
LAYER
  2
LAYER0031
 70
       0
 62
       7
  6
CONTINUOUS
  0
LAYER
  2
ZUWAKU
 70
       0
 62
       7
  6
CONTINUOUS
  0
ENDTAB
  0
TABLE
  2
STYLE
 70
       1
  0
STYLE
  2
STANDARD
 70
       0
 40
0.0
 41
0.8
 50
0.0
 71
       0
 42
30.0
  3
txt.shx
  4
bigfont.shx
  0
ENDTAB
  0
TABLE
  2
VIEW
 70
       0
  0
VIEW
  2
QQQQ
 70
       0
 40
3098.60416667
 10
65.83333333
 20
-2.91666667
 41
4322.39166667
 11
0.0
 21
0.0
 31
1.0
 12
100.0
 22
100.0
 32
0.0
 42
50.0
 43
0.0
 44
0.0
 50
0.0
 71
       0
  0
ENDTAB
  0
TABLE
  2
UCS
 70
       0
  0
ENDTAB
  0
TABLE
  2
APPID
 70
       1
  0
APPID
  2
ACAD
 70
       0
  0
ENDTAB
  0
TABLE
  2
DIMSTYLE
 70
       1
  0
DIMSTYLE
  2
STANDARD
 70
       0
  3

  4

  5

  6

  7

 40
1.0
 41
0.18
 42
0.0625
 43
0.38
 44
0.18
 45
0.0
 46
0.0
 47
0.0
 48
0.0
 71
       0
 72
       0
 73
       1
 74
       1
 75
       0
 76
       0
 77
       0
 78
       0
140
0.18
141
0.09
142
0.0
143
25.4
144
1.0
145
0.0
146
1.0
147
0.09
170
       0
171
       2
172
       0
173
       0
174
       0
175
       0
176
       0
177
       0
178
       0
  0
ENDTAB
  0
ENDSEC
  0
SECTION
  2
BLOCKS
  0
BLOCK
  8
0
  5
63
  2
GROUP_1
 70
       0
 10
0.0
 20
0.0
 30
0.0
  3
GROUP_1
  0
LINE
  8
LAYER0016
  6
CONTINUOUS
 62
       7
  5
64
 10
635.2180467
 20
-1062.91508648
 30
0.0
 11
648.3430467
 21
-1062.91508648
 31
0.0
  0
LINE
  8
LAYER0016
  6
CONTINUOUS
 62
       7
  5
65
 10
635.2180467
 20
-1060.41508648
 30
0.0
 11
635.2180467
 21
-1062.91508648
 31
0.0
  0
INSERT
  8
0
  6
CONTINUOUS
  5
66
  2
GROUP_2
 10
0.0
 20
0.0
 30
0.0
  0
ENDBLK
  8
0
  5
67
  0
BLOCK
  8
0
  5
68
  2
GROUP_2
 70
       0
 10
0.0
 20
0.0
 30
0.0
  3
GROUP_2
  0
LINE
  8
LAYER0016
  6
CONTINUOUS
 62
       7
  5
69
 10
563.3430467
 20
-1110.41508648
 30
0.0
 11
650.8430467
 21
-1110.41508648
 31
0.0
  0
LINE
  8
LAYER0016
  6
CONTINUOUS
 62
       7
  5
6A
 10
650.8430467
 20
-1060.41508648
 30
0.0
 11
650.8430467
 21
-1110.41508648
 31
0.0
  0
LINE
  8
LAYER0016
  6
CONTINUOUS
 62
       7
  5
6B
 10
635.2180467
 20
-1060.41508648
 30
0.0
 11
650.8430467
 21
-1060.41508648
 31
0.0
  0
LINE
  8
LAYER0016
  6
CONTINUOUS
 62
       7
  5
6C
 10
563.3430467
 20
-1107.91508648
 30
0.0
 11
563.3430467
 21
-1110.41508648
 31
0.0
  0
LINE
  8
LAYER0016
  6
CONTINUOUS
 62
       7
  5
6D
 10
563.3430467
 20
-1107.91508648
 30
0.0
 11
648.3430467
 21
-1107.91508648
 31
0.0
  0
LINE
  8
LAYER0016
  6
CONTINUOUS
 62
       7
  5
6E
 10
648.3430467
 20
-1062.91508648
 30
0.0
 11
648.3430467
 21
-1107.91508648
 31
0.0
  0
ENDBLK
  8
0
  5
6F
  0
BLOCK
  8
0
  5
70
  2
_OPEN30
 70
       0
 10
0.0
 20
0.0
 30
0.0
  3
_OPEN30
  0
LINE
  8
LAYER0001
  6
CONTINUOUS
 62
       0
  5
71
 10
0.0
 20
0.0
 30
0.0
 11
-0.96592583
 21
0.25881905
 31
0.0
  0
LINE
  8
LAYER0001
  6
CONTINUOUS
 62
       0
  5
72
 10
0.0
 20
0.0
 30
0.0
 11
-0.96592583
 21
-0.25881905
 31
0.0
  0
LINE
  8
LAYER0001
  6
CONTINUOUS
 62
       0
  5
73
 10
0.0
 20
0.0
 30
0.0
 11
-0.96592583
 21
0.0
 31
0.0
  0
ENDBLK
  8
0
  5
74
  0
BLOCK
  8
0
  5
75
  2
GROUP_3
 70
       0
 10
0.0
 20
0.0
 30
0.0
  3
GROUP_3
  0
LINE
  8
LAYER0016
  6
CONTINUOUS
 62
       7
  5
76
 10
-524.79877521
 20
-109.45856284
 30
0.0
 11
-413.38948258
 21
-194.89085849
 31
0.0
  0
CIRCLE
  8
LAYER0016
  6
CONTINUOUS
 62
       7
  5
77
 10
-384.62355917
 20
-216.94951101
 30
0.0
 40
36.25
  0
TEXT
  8
LAYER0016
 62
       7
  5
78
 10
-402.62355917
 20
-239.44951101
 30
0.0
 40
45.0
  1
1
 41
0.8
 72
       5
 11
-366.62355917
 21
-239.44951101
 31
0.0
  0
ENDBLK
  8
0
  5
79
  0
BLOCK
  8
0
  5
7A
  2
GROUP_4
 70
       0
 10
0.0
 20
0.0
 30
0.0
  3
GROUP_4
  0
LINE
  8
LAYER0016
  6
CONTINUOUS
 62
       7
  5
7B
 10
-39.26317569
 20
-282.83594627
 30
0.0
 11
-211.98024155
 21
-282.83594627
 31
0.0
  0
CIRCLE
  8
LAYER0016
  6
CONTINUOUS
 62
       7
  5
7C
 10
-248.23024155
 20
-282.83594627
 30
0.0
 40
36.25
  0
TEXT
  8
LAYER0016
 62
       7
  5
7D
 10
-266.23024155
 20
-305.33594627
 30
0.0
 40
45.0
  1
2
 41
0.8
 72
       5
 11
-230.23024155
 21
-305.33594627
 31
0.0
  0
ENDBLK
  8
0
  5
7E
  0
BLOCK
  8
0
  5
7F
  2
GROUP_5
 70
       0
 10
0.0
 20
0.0
 30
0.0
  3
GROUP_5
  0
LINE
  8
0
  6
CONTINUOUS
 62
       7
  5
80
 10
1263.53048047
 20
20.28688525
 30
0.0
 11
1265.61425861
 21
8.46919221
 31
0.0
  0
ARC
  8
0
  6
CONTINUOUS
 62
       7
  5
81
 10
1353.7949707
 20
88.32063685
 30
0.0
 40
1.0
 50
325.0
 51
505.0
  0
LINE
  8
0
  6
CONTINUOUS
 62
       7
  5
82
 10
1354.61412274
 20
87.74706041
 30
0.0
 11
1348.30478194
 21
78.73638792
 31
0.0
  0
LINE
  8
0
  6
CONTINUOUS
 62
       7
  5
83
 10
1348.30478194
 20
78.73638792
 30
0.0
 11
1347.4856299
 21
79.30996436
 31
0.0
  0
LINE
  8
0
  6
CONTINUOUS
 62
       7
  5
84
 10
1352.97581865
 20
88.89421328
 30
0.0
 11
1315.28282514
 21
35.06303973
 31
0.0
  0
LINE
  8
0
  6
CONTINUOUS
 62
       7
  5
85
 10
1316.10197719
 20
34.4894633
 30
0.0
 11
1353.7949707
 21
88.32063685
 31
0.0
  0
ARC
  8
0
  6
CONTINUOUS
 62
       7
  5
86
 10
1299.7189363
 20
45.96099202
 30
0.0
 40
20.0
 50
280.0
 51
325.0
  0
ARC
  8
0
  6
CONTINUOUS
 62
       7
  5
87
 10
1299.7189363
 20
45.96099202
 30
0.0
 40
19.0
 50
280.0
 51
325.0
  0
LINE
  8
0
  6
CONTINUOUS
 62
       7
  5
88
 10
1255.06918413
 20
-6.59073489
 30
0.0
 11
1265.61425861
 21
8.46919221
 31
0.0
  0
LINE
  8
0
  6
CONTINUOUS
 62
       7
  5
89
 10
822.33660712
 20
-57.50749835
 30
0.0
 11
824.42038526
 21
-69.32519139
 31
0.0
  0
ARC
  8
0
  6
CONTINUOUS
 62
       7
  5
8A
 10
733.06491712
 20
-127.09963414
 30
0.0
 40
1.0
 50
145.0
 51
325.0
  0
LINE
  8
0
  6
CONTINUOUS
 62
       7
  5
8B
 10
733.88406916
 20
-127.67321058
 30
0.0
 11
740.19340996
 21
-118.66253809
 31
0.0
  0
LINE
  8
0
  6
CONTINUOUS
 62
       7
  5
8C
 10
740.19340996
 20
-118.66253809
 30
0.0
 11
739.37425792
 21
-118.08896165
 31
0.0
  0
LINE
  8
0
  6
CONTINUOUS
 62
       7
  5
8D
 10
733.06491712
 20
-127.09963414
 30
0.0
 11
770.75791063
 21
-73.26846059
 31
0.0
  0
LINE
  8
0
  6
CONTINUOUS
 62
       7
  5
8E
 10
769.93875859
 20
-72.69488415
 30
0.0
 11
732.24576508
 21
-126.5260577
 31
0.0
  0
ARC
  8
0
  6
CONTINUOUS
 62
       7
  5
8F
 10
786.32179947
 20
-84.16641288
 30
0.0
 40
20.0
 50
100.0
 51
145.0
  0
ARC
  8
0
  6
CONTINUOUS
 62
       7
  5
90
 10
786.32179947
 20
-84.16641288
 30
0.0
 40
19.0
 50
100.0
 51
145.0
  0
LINE
  8
0
  6
CONTINUOUS
 62
       7
  5
91
 10
1303.19189986
 20
26.26483696
 30
0.0
 11
1263.70412865
 21
19.30207749
 31
0.0
  0
LINE
  8
0
  6
CONTINUOUS
 62
       7
  5
92
 10
782.84883592
 20
-64.47025782
 30
0.0
 11
1303.01825168
 21
27.24964472
 31
0.0
  0
LINE
  8
0
  6
CONTINUOUS
 62
       7
  5
93
 10
839.48031235
 20
-79.87026586
 30
0.0
 11
1255.06918413
 21
-6.59073489
 31
0.0
  0
LINE
  8
0
  6
CONTINUOUS
 62
       7
  5
94
 10
822.5102553
 20
-58.4923061
 30
0.0
 11
783.0224841
 21
-65.45506557
 31
0.0
  0
LINE
  8
0
  6
CONTINUOUS
 62
       7
  5
95
 10
839.48031235
 20
-79.87026586
 30
0.0
 11
824.42038526
 21
-69.32519139
 31
0.0
  0
LINE
  8
0
  6
CENTER
 62
       7
  5
96
 10
1039.48362457
 20
0.95515766
 30
0.0
 11
1055.18614252
 21
-88.09824692
 31
0.0
  0
ENDBLK
  8
0
  5
97
  0
BLOCK
  8
0
  5
98
  2
GROUP_6
 70
       0
 10
0.0
 20
0.0
 30
0.0
  3
GROUP_6
  0
CIRCLE
  8
LAYER0005
  6
CONTINUOUS
 62
       7
  5
99
 10
1053.26561037
 20
-77.20636786
 30
0.0
 40
2.5
  0
CIRCLE
  8
LAYER0005
  6
CONTINUOUS
 62
       7
  5
9A
 10
1053.26561037
 20
-127.20636786
 30
0.0
 40
2.5
  0
CIRCLE
  8
LAYER0005
  6
CONTINUOUS
 62
       7
  5
9B
 10
1053.26561037
 20
-147.20636786
 30
0.0
 40
2.5
  0
LINE
  8
LAYER0005
  6
CONTINUOUS
 62
       7
  5
9C
 10
1070.60429172
 20
-155.38321947
 30
0.0
 11
995.54645114
 21
-168.61794188
 31
0.0
  0
ARC
  8
LAYER0005
  6
CONTINUOUS
 62
       7
  5
9D
 10
1073.0663111
 20
-154.94909903
 30
0.0
 40
2.5
 50
10.0
 51
190.0
  0
ARC
  8
LAYER0005
  6
CONTINUOUS
 62
       7
  5
9E
 10
989.66563197
 20
-139.19209061
 30
0.0
 40
30.0
 50
250.0
 51
280.0
  0
LINE
  8
LAYER0005
  6
CONTINUOUS
 62
       7
  5
9F
 10
863.321672
 20
-94.14715524
 30
0.0
 11
866.1521373
 21
-110.19952161
 31
0.0
  0
ARC
  8
LAYER0005
  6
CONTINUOUS
 62
       7
  5
A0
 10
862.88755156
 20
-91.68513586
 30
0.0
 40
2.5
 50
280.0
 51
398.68540201
  0
ARC
  8
LAYER0005
  6
CONTINUOUS
 62
       7
  5
A1
 10
895.69636989
 20
-104.99007628
 30
0.0
 40
30.0
 50
190.0
 51
250.0
  0
LINE
  8
LAYER0005
  6
CONTINUOUS
 62
       7
  5
A2
 10
1240.2078395
 20
-25.96573001
 30
0.0
 11
1237.34264457
 21
-9.71640209
 31
0.0
  0
LINE
  8
LAYER0005
  6
CONTINUOUS
 62
       7
  5
A3
 10
1240.2078395
 20
-25.96573001
 30
0.0
 11
1234.92085589
 21
-26.89796787
 31
0.0
  0
LINE
  8
LAYER0005
  6
CONTINUOUS
 62
       7
  5
A4
 10
1230.11847914
 20
-72.40399272
 30
0.0
 11
1153.51403483
 21
-136.68275369
 31
0.0
  0
ARC
  8
LAYER0005
  6
CONTINUOUS
 62
       7
  5
A5
 10
1237.1144977
 20
-25.69882834
 30
0.0
 40
2.5
 50
161.31459799
 51
280.0
  0
LINE
  8
LAYER0005
  6
CONTINUOUS
 62
       7
  5
A6
 10
1237.54861815
 20
-28.16084772
 30
0.0
 11
1240.37908344
 21
-44.2132141
 31
0.0
  0
ARC
  8
LAYER0005
  6
CONTINUOUS
 62
       7
  5
A7
 10
1210.83485085
 20
-49.42265943
 30
0.0
 40
30.0
 50
310.0
 51
370.0
  0
LINE
  8
LAYER0005
  6
CONTINUOUS
 62
       7
  5
A8
 10
1237.89092764
 20
-24.34341086
 30
0.0
 11
861.69436599
 21
-90.67701473
 31
0.0
  0
LINE
  8
LAYER0005
  6
CONTINUOUS
 62
       7
  5
A9
 10
1138.76847802
 20
-143.36403431
 30
0.0
 11
1075.52833048
 21
-154.51497859
 31
0.0
  0
LINE
  8
LAYER0005
  6
CONTINUOUS
 62
       7
  5
AA
 10
885.43576559
 20
-133.18085491
 30
0.0
 11
979.40502767
 21
-167.38286924
 31
0.0
  0
LINE
  8
LAYER0005
  6
CONTINUOUS
 62
       7
  5
AB
 10
860.07204684
 20
-92.99392659
 30
0.0
 11
857.20685191
 21
-76.74459867
 31
0.0
  0
LINE
  8
LAYER0005
  6
CONTINUOUS
 62
       7
  5
AC
 10
865.35903045
 20
-92.06168873
 30
0.0
 11
860.07204684
 21
-92.99392659
 31
0.0
  0
ARC
  8
LAYER0005
  6
CONTINUOUS
 62
       7
  5
AD
 10
1134.23040654
 20
-113.7014204
 30
0.0
 40
30.0
 50
280.0
 51
310.0
  0
LINE
  8
LAYER0005
  6
CONTINUOUS
 62
       7
  5
AE
 10
1235.37302907
 20
-10.06369844
 30
0.0
 11
1237.89092764
 21
-24.34341086
 31
0.0
  0
LINE
  8
LAYER0005
  6
CONTINUOUS
 62
       7
  5
AF
 10
859.17646741
 20
-76.39730231
 30
0.0
 11
861.69436599
 21
-90.67701473
 31
0.0
  0
ENDBLK
  8
0
  5
B0
  0
BLOCK
  8
0
  5
B1
  2
GROUP_7
 70
       0
 10
0.0
 20
0.0
 30
0.0
  3
GROUP_7
  0
LINE
  8
LAYER0002
  6
CONTINUOUS
 62
       7
  5
B2
 10
1242.22405514
 20
-14.94105223
 30
0.0
 11
1243.75338784
 21
-23.61432894
 31
0.0
  0
ARC
  8
LAYER0002
  6
CONTINUOUS
 62
       7
  5
B3
 10
1242.57161853
 20
-23.82270675
 30
0.0
 40
1.2
 50
190.0
 51
370.0
  0
LINE
  8
LAYER0002
  6
CONTINUOUS
 62
       7
  5
B4
 10
1242.22528387
 20
-14.94802071
 30
0.0
 11
1241.04351457
 21
-15.15639853
 31
0.0
  0
LINE
  8
LAYER0002
  6
CONTINUOUS
 62
       7
  5
B5
 10
1238.8198562
 20
-9.45592982
 30
0.0
 11
1241.38984923
 21
-24.03108457
 31
0.0
  0
LINE
  8
LAYER0002
  6
CONTINUOUS
 62
       7
  5
B6
 10
1240.0016255
 20
-9.24755201
 30
0.0
 11
1242.57161853
 21
-23.82270675
 31
0.0
  0
ENDBLK
  8
0
  5
B7
  0
BLOCK
  8
0
  5
B8
  2
GROUP_8
 70
       0
 10
0.0
 20
0.0
 30
0.0
  3
GROUP_8
  0
CIRCLE
  8
LAYER0004
  6
CONTINUOUS
 62
       7
  5
B9
 10
1053.26561037
 20
-77.20636786
 30
0.0
 40
2.5
  0
CIRCLE
  8
LAYER0004
  6
CONTINUOUS
 62
       7
  5
BA
 10
1053.26561037
 20
-127.20636786
 30
0.0
 40
2.5
  0
CIRCLE
  8
LAYER0004
  6
CONTINUOUS
 62
       7
  5
BB
 10
1053.26561037
 20
-147.20636786
 30
0.0
 40
2.5
  0
LINE
  8
LAYER0004
  6
CONTINUOUS
 62
       7
  5
BC
 10
1033.26561037
 20
-762.20636786
 30
0.0
 11
1073.26561037
 21
-762.20636786
 31
0.0
  0
LINE
  8
LAYER0004
  6
CONTINUOUS
 62
       7
  5
BD
 10
1033.26561037
 20
-762.20636786
 30
0.0
 11
1033.26561037
 21
-161.96703642
 31
0.0
  0
LINE
  8
LAYER0004
  6
CONTINUOUS
 62
       7
  5
BE
 10
1073.26561037
 20
-762.20636786
 30
0.0
 11
1073.26561037
 21
-152.45705573
 31
0.0
  0
LINE
  8
LAYER0004
  6
CENTER
 62
       7
  5
BF
 10
1015.90271601
 20
-483.70636786
 30
0.0
 11
1053.35800437
 21
-483.70636786
 31
0.0
  0
LINE
  8
LAYER0004
  6
CENTER
 62
       7
  5
C0
 10
1015.90271601
 20
-533.70636786
 30
0.0
 11
1053.35800437
 21
-533.70636786
 31
0.0
  0
LINE
  8
LAYER0004
  6
CENTER
 62
       7
  5
C1
 10
1015.90271601
 20
-583.70636786
 30
0.0
 11
1053.35800437
 21
-583.70636786
 31
0.0
  0
LINE
  8
LAYER0004
  6
CENTER
 62
       7
  5
C2
 10
1015.90271601
 20
-633.70636786
 30
0.0
 11
1053.35800437
 21
-633.70636786
 31
0.0
  0
LINE
  8
LAYER0004
  6
CENTER
 62
       7
  5
C3
 10
1015.90271601
 20
-683.70636786
 30
0.0
 11
1053.35800437
 21
-683.70636786
 31
0.0
  0
ENDBLK
  8
0
  5
C4
  0
BLOCK
  8
0
  5
C5
  2
GROUP_9
 70
       0
 10
0.0
 20
0.0
 30
0.0
  3
GROUP_9
  0
LINE
  8
LAYER0005
  6
CONTINUOUS
 62
       7
  5
C6
 10
14.65163934
 20
-157.20636786
 30
0.0
 11
16.65163934
 21
-157.20636786
 31
0.0
  0
LINE
  8
LAYER0005
  6
CONTINUOUS
 62
       7
  5
C7
 10
16.65163934
 20
-128.09963414
 30
0.0
 11
16.65163934
 21
-157.20636786
 31
0.0
  0
LINE
  8
LAYER0005
  6
CONTINUOUS
 62
       7
  5
C8
 10
14.65163934
 20
-128.09963414
 30
0.0
 11
14.65163934
 21
-157.20636786
 31
0.0
  0
LINE
  8
LAYER0005
  6
CONTINUOUS
 62
       7
  5
C9
 10
-56.34836066
 20
-134.99007628
 30
0.0
 11
-58.34836066
 21
-134.99007628
 31
0.0
  0
LINE
  8
LAYER0005
  6
CONTINUOUS
 62
       7
  5
CA
 10
-58.34836066
 20
-128.09963414
 30
0.0
 11
-58.34836066
 21
-134.99007628
 31
0.0
  0
LINE
  8
LAYER0005
  6
CONTINUOUS
 62
       7
  5
CB
 10
-56.34836066
 20
-128.09963414
 30
0.0
 11
-56.34836066
 21
-134.99007628
 31
0.0
  0
ENDBLK
  8
0
  5
CC
  0
BLOCK
  8
0
  5
CD
  2
GROUP_10
 70
       0
 10
0.0
 20
0.0
 30
0.0
  3
GROUP_10
  0
LINE
  8
LAYER0005
  6
CONTINUOUS
 62
       7
  5
CE
 10
-1408.34836065
 20
-157.20636786
 30
0.0
 11
-1410.34836066
 21
-157.20636786
 31
0.0
  0
LINE
  8
LAYER0005
  6
CONTINUOUS
 62
       7
  5
CF
 10
-1410.34836066
 20
-128.09963414
 30
0.0
 11
-1410.34836066
 21
-157.20636786
 31
0.0
  0
LINE
  8
LAYER0005
  6
CONTINUOUS
 62
       7
  5
D0
 10
-1408.34836065
 20
-128.09963414
 30
0.0
 11
-1408.34836065
 21
-157.20636786
 31
0.0
  0
LINE
  8
LAYER0005
  6
CONTINUOUS
 62
       7
  5
D1
 10
-1337.34836065
 20
-134.99007628
 30
0.0
 11
-1335.34836065
 21
-134.99007628
 31
0.0
  0
LINE
  8
LAYER0005
  6
CONTINUOUS
 62
       7
  5
D2
 10
-1335.34836065
 20
-128.09963414
 30
0.0
 11
-1335.34836065
 21
-134.99007628
 31
0.0
  0
LINE
  8
LAYER0005
  6
CONTINUOUS
 62
       7
  5
D3
 10
-1337.34836065
 20
-128.09963414
 30
0.0
 11
-1337.34836065
 21
-134.99007628
 31
0.0
  0
ENDBLK
  8
0
  5
D4
  0
BLOCK
  8
0
  5
D5
  2
GROUP_11
 70
       0
 10
0.0
 20
0.0
 30
0.0
  3
GROUP_11
  0
LINE
  8
LAYER0016
  6
CONTINUOUS
 62
       7
  5
D6
 10
848.62042569
 20
-72.75195552
 30
0.0
 11
762.06333702
 21
-303.8882874
 31
0.0
  0
CIRCLE
  8
LAYER0016
  6
CONTINUOUS
 62
       7
  5
D7
 10
749.35044125
 20
-337.83596451
 30
0.0
 40
36.25
  0
TEXT
  8
LAYER0016
 62
       7
  5
D8
 10
731.35044125
 20
-360.33596451
 30
0.0
 40
45.0
  1
3
 41
0.8
 72
       5
 11
767.35044125
 21
-360.33596451
 31
0.0
  0
ENDBLK
  8
0
  5
D9
  0
BLOCK
  8
0
  5
DA
  2
_ORIGIN
 70
       0
 10
0.0
 20
0.0
 30
0.0
  3
_ORIGIN
  0
CIRCLE
  8
LAYER0001
  6
CONTINUOUS
 62
       0
  5
DB
 10
0.0
 20
0.0
 30
0.0
 40
0.5
  0
ENDBLK
  8
0
  5
DC
  0
BLOCK
  8
0
  5
DD
  2
_DOT
 70
       0
 10
0.0
 20
0.0
 30
0.0
  3
_DOT
  0
ENDBLK
  8
0
  5
DF
  0
BLOCK
  8
0
  5
E0
  2
GROUP_12
 70
       0
 10
0.0
 20
0.0
 30
0.0
  3
GROUP_12
  0
LINE
  8
0
  6
CONTINUOUS
 62
       7
  5
E1
 10
-1496.84836066
 20
-1235.89863198
 30
0.0
 11
-1496.84836066
 21
-1195.89863198
 31
0.0
  0
LINE
  8
0
  6
CONTINUOUS
 62
       7
  5
E2
 10
-1496.84836066
 20
-1235.89863198
 30
0.0
 11
103.15163934
 21
-1235.89863198
 31
0.0
  0
LINE
  8
0
  6
CONTINUOUS
 62
       7
  5
E3
 10
103.15163934
 20
-1195.89863198
 30
0.0
 11
-1496.84836066
 21
-1195.89863198
 31
0.0
  0
LINE
  8
0
  6
CONTINUOUS
 62
       7
  5
E4
 10
103.15163934
 20
-1235.89863198
 30
0.0
 11
103.15163934
 21
-1195.89863198
 31
0.0
  0
LINE
  8
0
  6
CENTER
 62
       7
  5
E5
 10
-696.84836066
 20
-1164.51562344
 30
0.0
 11
-696.84836066
 21
-1285.31637786
 31
0.0
  0
INSERT
  8
0
  6
CONTINUOUS
  5
E6
  2
GROUP_13
 10
0.0
 20
0.0
 30
0.0
  0
INSERT
  8
0
  6
CONTINUOUS
  5
E7
  2
GROUP_16
 10
0.0
 20
0.0
 30
0.0
  0
ENDBLK
  8
0
  5
E8
  0
BLOCK
  8
0
  5
E9
  2
GROUP_13
 70
       0
 10
0.0
 20
0.0
 30
0.0
  3
GROUP_13
  0
LINE
  8
0
  6
CONTINUOUS
 62
       7
  5
EA
 10
-1446.84836066
 20
-1209.89863198
 30
0.0
 11
-1196.84836066
 21
-1209.89863198
 31
0.0
  0
ARC
  8
0
  6
CONTINUOUS
 62
       7
  5
EB
 10
-1196.84836066
 20
-1213.89863198
 30
0.0
 40
4.0
 50
270.0
 51
450.0
  0
LINE
  8
0
  6
CONTINUOUS
 62
       7
  5
EC
 10
-1196.84836066
 20
-1217.89863198
 30
0.0
 11
-1446.84836066
 21
-1217.89863198
 31
0.0
  0
ARC
  8
0
  6
CONTINUOUS
 62
       7
  5
ED
 10
-1446.84836066
 20
-1213.89863198
 30
0.0
 40
4.0
 50
90.0
 51
270.0
  0
INSERT
  8
0
  6
CONTINUOUS
  5
EE
  2
GROUP_14
 10
0.0
 20
0.0
 30
0.0
  0
INSERT
  8
0
  6
CONTINUOUS
  5
EF
  2
GROUP_15
 10
0.0
 20
0.0
 30
0.0
  0
ENDBLK
  8
0
  5
F0
  0
BLOCK
  8
0
  5
F1
  2
GROUP_14
 70
       0
 10
0.0
 20
0.0
 30
0.0
  3
GROUP_14
  0
LINE
  8
0
  6
CENTER
 62
       7
  5
F2
 10
-1206.84836066
 20
-1213.89863198
 30
0.0
 11
-1186.84836066
 21
-1213.89863198
 31
0.0
  0
LINE
  8
0
  6
CENTER
 62
       7
  5
F3
 10
-1196.84836066
 20
-1203.89863198
 30
0.0
 11
-1196.84836066
 21
-1223.89863198
 31
0.0
  0
ENDBLK
  8
0
  5
F4
  0
BLOCK
  8
0
  5
F5
  2
GROUP_15
 70
       0
 10
0.0
 20
0.0
 30
0.0
  3
GROUP_15
  0
LINE
  8
0
  6
CENTER
 62
       7
  5
F6
 10
-1456.84836066
 20
-1213.89863198
 30
0.0
 11
-1436.84836066
 21
-1213.89863198
 31
0.0
  0
LINE
  8
0
  6
CENTER
 62
       7
  5
F7
 10
-1446.84836066
 20
-1203.89863198
 30
0.0
 11
-1446.84836066
 21
-1223.89863198
 31
0.0
  0
ENDBLK
  8
0
  5
F8
  0
BLOCK
  8
0
  5
F9
  2
GROUP_16
 70
       0
 10
0.0
 20
0.0
 30
0.0
  3
GROUP_16
  0
LINE
  8
0
  6
CONTINUOUS
 62
       7
  5
FA
 10
53.15163934
 20
-1209.89863198
 30
0.0
 11
-196.84836066
 21
-1209.89863198
 31
0.0
  0
ARC
  8
0
  6
CONTINUOUS
 62
       7
  5
FB
 10
-196.84836066
 20
-1213.89863198
 30
0.0
 40
4.0
 50
90.0
 51
270.0
  0
LINE
  8
0
  6
CONTINUOUS
 62
       7
  5
FC
 10
-196.84836066
 20
-1217.89863198
 30
0.0
 11
53.15163934
 21
-1217.89863198
 31
0.0
  0
ARC
  8
0
  6
CONTINUOUS
 62
       7
  5
FD
 10
53.15163934
 20
-1213.89863198
 30
0.0
 40
4.0
 50
270.0
 51
450.0
  0
INSERT
  8
0
  6
CONTINUOUS
  5
FE
  2
GROUP_17
 10
0.0
 20
0.0
 30
0.0
  0
INSERT
  8
0
  6
CONTINUOUS
  5
FF
  2
GROUP_18
 10
0.0
 20
0.0
 30
0.0
  0
ENDBLK
  8
0
  5
100
  0
BLOCK
  8
0
  5
101
  2
GROUP_17
 70
       0
 10
0.0
 20
0.0
 30
0.0
  3
GROUP_17
  0
LINE
  8
0
  6
CENTER
 62
       7
  5
102
 10
-186.84836066
 20
-1213.89863198
 30
0.0
 11
-206.84836066
 21
-1213.89863198
 31
0.0
  0
LINE
  8
0
  6
CENTER
 62
       7
  5
103
 10
-196.84836066
 20
-1203.89863198
 30
0.0
 11
-196.84836066
 21
-1223.89863198
 31
0.0
  0
ENDBLK
  8
0
  5
104
  0
BLOCK
  8
0
  5
105
  2
GROUP_18
 70
       0
 10
0.0
 20
0.0
 30
0.0
  3
GROUP_18
  0
LINE
  8
0
  6
CENTER
 62
       7
  5
106
 10
63.15163934
 20
-1213.89863198
 30
0.0
 11
43.15163934
 21
-1213.89863198
 31
0.0
  0
LINE
  8
0
  6
CENTER
 62
       7
  5
107
 10
53.15163934
 20
-1203.89863198
 30
0.0
 11
53.15163934
 21
-1223.89863198
 31
0.0
  0
ENDBLK
  8
0
  5
108
  0
BLOCK
  8
0
  5
109
  2
GROUP_19
 70
       0
 10
0.0
 20
0.0
 30
0.0
  3
GROUP_19
  0
TEXT
  8
LAYER0001
 62
       7
  5
10A
 10
460.53539195
 20
-1372.71095482
 30
0.0
 40
52.5
  1
脚　断面形状
 41
0.75
 72
       5
 11
696.78539195
 21
-1372.71095482
 31
0.0
  0
LINE
  8
LAYER0001
  6
CONTINUOUS
 62
       7
  5
10B
 10
455.28539195
 20
-1377.96095482
 30
0.0
 11
702.03539195
 21
-1377.96095482
 31
0.0
  0
LINE
  8
LAYER0001
  6
CONTINUOUS
 62
       7
  5
10C
 10
702.03539195
 20
-1377.96095482
 30
0.0
 11
702.03539195
 21
-1314.96095482
 31
0.0
  0
LINE
  8
LAYER0001
  6
CONTINUOUS
 62
       7
  5
10D
 10
455.28539195
 20
-1314.96095482
 30
0.0
 11
702.03539195
 21
-1314.96095482
 31
0.0
  0
LINE
  8
LAYER0001
  6
CONTINUOUS
 62
       7
  5
10E
 10
455.28539195
 20
-1377.96095482
 30
0.0
 11
455.28539195
 21
-1314.96095482
 31
0.0
  0
ENDBLK
  8
0
  5
10F
  0
BLOCK
  8
0
  5
110
  2
GROUP_20
 70
       0
 10
0.0
 20
0.0
 30
0.0
  3
GROUP_20
  0
TEXT
  8
LAYER0001
 62
       7
  5
111
 10
-854.34836066
 20
-1372.71095482
 30
0.0
 40
52.5
  1
脚ピッチ調整範囲
 41
0.75
 72
       5
 11
-539.34836066
 21
-1372.71095482
 31
0.0
  0
LINE
  8
LAYER0001
  6
CONTINUOUS
 62
       7
  5
112
 10
-859.59836066
 20
-1377.96095482
 30
0.0
 11
-534.09836066
 21
-1377.96095482
 31
0.0
  0
LINE
  8
LAYER0001
  6
CONTINUOUS
 62
       7
  5
113
 10
-534.09836066
 20
-1377.96095482
 30
0.0
 11
-534.09836066
 21
-1314.96095482
 31
0.0
  0
LINE
  8
LAYER0001
  6
CONTINUOUS
 62
       7
  5
114
 10
-859.59836066
 20
-1314.96095482
 30
0.0
 11
-534.09836066
 21
-1314.96095482
 31
0.0
  0
LINE
  8
LAYER0001
  6
CONTINUOUS
 62
       7
  5
115
 10
-859.59836066
 20
-1377.96095482
 30
0.0
 11
-859.59836066
 21
-1314.96095482
 31
0.0
  0
ENDBLK
  8
0
  5
116
  0
BLOCK
  8
0
  5
117
  2
GROUP_21
 70
       0
 10
0.0
 20
0.0
 30
0.0
  3
GROUP_21
  0
LINE
  8
LAYER0002
  6
DASHED2
 62
       7
  5
118
 10
852.84194244
 20
-76.75268002
 30
0.0
 11
849.38600359
 21
-77.36205528
 31
0.0
  0
LINE
  8
LAYER0002
  6
DASHED2
 62
       7
  5
119
 10
852.34066333
 20
-73.90978491
 30
0.0
 11
848.88472448
 21
-74.51916017
 31
0.0
  0
LINE
  8
LAYER0002
  6
DASHED2
 62
       7
  5
11A
 10
848.65207187
 20
-76.02582517
 30
0.0
 11
847.15639694
 21
-67.54343112
 31
0.0
  0
LINE
  8
LAYER0002
  6
DASHED2
 62
       7
  5
11B
 10
850.84498839
 20
-65.42739086
 30
0.0
 11
847.38904955
 21
-66.03676612
 31
0.0
  0
LINE
  8
LAYER0002
  6
DASHED2
 62
       7
  5
11C
 10
851.34626751
 20
-68.27028596
 30
0.0
 11
847.89032866
 21
-68.87966122
 31
0.0
  0
ARC
  8
LAYER0002
  6
DASHED2
 62
       7
  5
11D
 10
850.984082
 20
-75.61462887
 30
0.0
 40
2.36798515
 50
152.44393356
 51
227.55606644
  0
ARC
  8
LAYER0002
  6
DASHED2
 62
       7
  5
11E
 10
849.48840707
 20
-67.13223481
 30
0.0
 40
2.36798515
 50
152.44393356
 51
227.55606644
  0
ARC
  8
LAYER0002
  6
DASHED2
 62
       7
  5
11F
 10
856.37174014
 20
-70.29157843
 30
0.0
 40
8.59813066
 50
170.54853244
 51
209.45146756
  0
LINE
  8
LAYER0002
  6
DASHED2
 62
       7
  5
120
 10
852.33385671
 20
-64.6571499
 30
0.0
 11
850.75816431
 21
-64.93498698
 31
0.0
  0
LINE
  8
LAYER0002
  6
DASHED2
 62
       7
  5
121
 10
854.50445893
 20
-76.96724681
 30
0.0
 11
852.33385671
 21
-64.6571499
 31
0.0
  0
LINE
  8
LAYER0002
  6
DASHED2
 62
       7
  5
122
 10
854.50445893
 20
-76.96724681
 30
0.0
 11
852.92876653
 21
-77.24508389
 31
0.0
  0
LINE
  8
LAYER0002
  6
DASHED2
 62
       7
  5
123
 10
852.92876653
 20
-77.24508389
 30
0.0
 11
850.75816431
 21
-64.93498698
 31
0.0
  0
LINE
  8
LAYER0002
  6
DASHED2
 62
       7
  5
124
 10
853.94010235
 20
-73.76662161
 30
0.0
 11
869.10614175
 21
-71.09243967
 31
0.0
  0
LINE
  8
LAYER0002
  6
DASHED2
 62
       7
  5
125
 10
853.84633234
 20
-73.23482542
 30
0.0
 11
869.54416792
 21
-70.46687347
 31
0.0
  0
LINE
  8
LAYER0002
  6
DASHED2
 62
       7
  5
126
 10
869.10614175
 20
-71.09243967
 30
0.0
 11
868.06425268
 21
-65.18359316
 31
0.0
  0
LINE
  8
LAYER0002
  6
DASHED2
 62
       7
  5
127
 10
852.89821329
 20
-67.85777509
 30
0.0
 11
868.06425268
 21
-65.18359316
 31
0.0
  0
LINE
  8
LAYER0002
  6
DASHED2
 62
       7
  5
128
 10
852.9919833
 20
-68.38957128
 30
0.0
 11
868.68981889
 21
-65.62161933
 31
0.0
  0
LINE
  8
LAYER0002
  6
DASHED2
 62
       7
  5
129
 10
869.91730133
 20
-69.93398374
 30
0.0
 11
869.22270862
 21
-65.99475273
 31
0.0
  0
LINE
  8
LAYER0002
  6
DASHED2
 62
       7
  5
12A
 10
869.10614175
 20
-71.09243967
 30
0.0
 11
869.91730133
 21
-69.93398374
 31
0.0
  0
LINE
  8
LAYER0002
  6
DASHED2
 62
       7
  5
12B
 10
868.06425268
 20
-65.18359316
 30
0.0
 11
869.22270862
 21
-65.99475273
 31
0.0
  0
ENDBLK
  8
0
  5
12C
  0
BLOCK
  8
0
  5
12D
  2
GROUP_22
 70
       0
 10
0.0
 20
0.0
 30
0.0
  3
GROUP_22
  0
LINE
  8
LAYER0002
  6
DASHED2
 62
       7
  5
12E
 10
1241.44708178
 20
-8.23110911
 30
0.0
 11
1244.90302062
 21
-7.62173385
 31
0.0
  0
LINE
  8
LAYER0002
  6
DASHED2
 62
       7
  5
12F
 10
1240.94580267
 20
-5.388214
 30
0.0
 11
1244.40174151
 21
-4.77883874
 31
0.0
  0
LINE
  8
LAYER0002
  6
DASHED2
 62
       7
  5
130
 10
1245.13567323
 20
-6.11506884
 30
0.0
 11
1243.6399983
 21
2.36732521
 31
0.0
  0
LINE
  8
LAYER0002
  6
DASHED2
 62
       7
  5
131
 10
1239.45012773
 20
3.09418005
 30
0.0
 11
1242.90606658
 21
3.70355531
 31
0.0
  0
LINE
  8
LAYER0002
  6
DASHED2
 62
       7
  5
132
 10
1239.95140684
 20
0.25128494
 30
0.0
 11
1243.40734569
 21
0.86066021
 31
0.0
  0
ARC
  8
LAYER0002
  6
DASHED2
 62
       7
  5
133
 10
1242.8036631
 20
-6.52626515
 30
0.0
 40
2.36798515
 50
332.44393356
 51
407.55606644
  0
ARC
  8
LAYER0002
  6
DASHED2
 62
       7
  5
134
 10
1241.30798817
 20
1.9561289
 30
0.0
 40
2.36798515
 50
332.44393356
 51
407.55606644
  0
ARC
  8
LAYER0002
  6
DASHED2
 62
       7
  5
135
 10
1235.92033003
 20
-3.36692154
 30
0.0
 40
8.59813066
 50
350.54853244
 51
389.45146756
  0
LINE
  8
LAYER0002
  6
DASHED2
 62
       7
  5
136
 10
1237.78761124
 20
3.30874684
 30
0.0
 11
1239.36330364
 21
3.58658393
 31
0.0
  0
LINE
  8
LAYER0002
  6
DASHED2
 62
       7
  5
137
 10
1239.95821346
 20
-9.00135007
 30
0.0
 11
1237.78761124
 21
3.30874684
 31
0.0
  0
LINE
  8
LAYER0002
  6
DASHED2
 62
       7
  5
138
 10
1239.95821346
 20
-9.00135007
 30
0.0
 11
1241.53390587
 21
-8.72351298
 31
0.0
  0
LINE
  8
LAYER0002
  6
DASHED2
 62
       7
  5
139
 10
1241.53390587
 20
-8.72351298
 30
0.0
 11
1239.36330364
 21
3.58658393
 31
0.0
  0
LINE
  8
LAYER0002
  6
DASHED2
 62
       7
  5
13A
 10
1239.39385688
 20
-5.80072487
 30
0.0
 11
1224.22781749
 21
-8.47490681
 31
0.0
  0
LINE
  8
LAYER0002
  6
DASHED2
 62
       7
  5
13B
 10
1239.30008687
 20
-5.26892869
 30
0.0
 11
1223.60225128
 21
-8.03688064
 31
0.0
  0
LINE
  8
LAYER0002
  6
DASHED2
 62
       7
  5
13C
 10
1224.22781749
 20
-8.47490681
 30
0.0
 11
1223.18592842
 21
-2.56606029
 31
0.0
  0
LINE
  8
LAYER0002
  6
DASHED2
 62
       7
  5
13D
 10
1238.35196782
 20
0.10812165
 30
0.0
 11
1223.18592842
 21
-2.56606029
 31
0.0
  0
LINE
  8
LAYER0002
  6
DASHED2
 62
       7
  5
13E
 10
1238.44573783
 20
-0.42367454
 30
0.0
 11
1222.74790225
 21
-3.19162649
 31
0.0
  0
LINE
  8
LAYER0002
  6
DASHED2
 62
       7
  5
13F
 10
1223.06936156
 20
-7.66374723
 30
0.0
 11
1222.37476885
 21
-3.72451622
 31
0.0
  0
LINE
  8
LAYER0002
  6
DASHED2
 62
       7
  5
140
 10
1224.22781749
 20
-8.47490681
 30
0.0
 11
1223.06936156
 21
-7.66374723
 31
0.0
  0
LINE
  8
LAYER0002
  6
DASHED2
 62
       7
  5
141
 10
1223.18592842
 20
-2.56606029
 30
0.0
 11
1222.37476885
 21
-3.72451622
 31
0.0
  0
ENDBLK
  8
0
  5
142
  0
BLOCK
  8
0
  5
143
  2
GROUP_23
 70
       0
 10
0.0
 20
0.0
 30
0.0
  3
GROUP_23
  0
ARC
  8
LAYER0004
  6
CONTINUOUS
 62
       7
  5
144
 10
-34.34836066
 20
-483.70636786
 30
0.0
 40
7.0
 50
90.0
 51
270.0
  0
ARC
  8
LAYER0004
  6
CONTINUOUS
 62
       7
  5
145
 10
-19.34836066
 20
-483.70636786
 30
0.0
 40
7.0
 50
270.0
 51
450.0
  0
LINE
  8
LAYER0004
  6
CONTINUOUS
 62
       7
  5
146
 10
-34.34836066
 20
-476.70636786
 30
0.0
 11
-19.34836066
 21
-476.70636786
 31
0.0
  0
LINE
  8
LAYER0004
  6
CONTINUOUS
 62
       7
  5
147
 10
-34.34836066
 20
-490.70636786
 30
0.0
 11
-19.34836066
 21
-490.70636786
 31
0.0
  0
LINE
  8
LAYER0004
  6
CENTER
 62
       7
  5
148
 10
-48.17242728
 20
-483.70636786
 30
0.0
 11
4.29880441
 21
-483.70636786
 31
0.0
  0
ENDBLK
  8
0
  5
149
  0
BLOCK
  8
0
  5
14A
  2
GROUP_24
 70
       0
 10
0.0
 20
0.0
 30
0.0
  3
GROUP_24
  0
ARC
  8
LAYER0004
  6
CONTINUOUS
 62
       7
  5
14B
 10
-34.34836066
 20
-533.70636786
 30
0.0
 40
7.0
 50
90.0
 51
270.0
  0
ARC
  8
LAYER0004
  6
CONTINUOUS
 62
       7
  5
14C
 10
-19.34836066
 20
-533.70636786
 30
0.0
 40
7.0
 50
270.0
 51
450.0
  0
LINE
  8
LAYER0004
  6
CONTINUOUS
 62
       7
  5
14D
 10
-34.34836066
 20
-526.70636786
 30
0.0
 11
-19.34836066
 21
-526.70636786
 31
0.0
  0
LINE
  8
LAYER0004
  6
CONTINUOUS
 62
       7
  5
14E
 10
-34.34836066
 20
-540.70636786
 30
0.0
 11
-19.34836066
 21
-540.70636786
 31
0.0
  0
LINE
  8
LAYER0004
  6
CENTER
 62
       7
  5
14F
 10
-48.17242728
 20
-533.70636786
 30
0.0
 11
4.29880441
 21
-533.70636786
 31
0.0
  0
ENDBLK
  8
0
  5
150
  0
BLOCK
  8
0
  5
151
  2
GROUP_25
 70
       0
 10
0.0
 20
0.0
 30
0.0
  3
GROUP_25
  0
ARC
  8
LAYER0004
  6
CONTINUOUS
 62
       7
  5
152
 10
-34.34836066
 20
-583.70636786
 30
0.0
 40
7.0
 50
90.0
 51
270.0
  0
ARC
  8
LAYER0004
  6
CONTINUOUS
 62
       7
  5
153
 10
-19.34836066
 20
-583.70636786
 30
0.0
 40
7.0
 50
270.0
 51
450.0
  0
LINE
  8
LAYER0004
  6
CONTINUOUS
 62
       7
  5
154
 10
-34.34836066
 20
-576.70636786
 30
0.0
 11
-19.34836066
 21
-576.70636786
 31
0.0
  0
LINE
  8
LAYER0004
  6
CONTINUOUS
 62
       7
  5
155
 10
-34.34836066
 20
-590.70636786
 30
0.0
 11
-19.34836066
 21
-590.70636786
 31
0.0
  0
LINE
  8
LAYER0004
  6
CENTER
 62
       7
  5
156
 10
-48.17242728
 20
-583.70636786
 30
0.0
 11
4.29880441
 21
-583.70636786
 31
0.0
  0
ENDBLK
  8
0
  5
157
  0
BLOCK
  8
0
  5
158
  2
GROUP_26
 70
       0
 10
0.0
 20
0.0
 30
0.0
  3
GROUP_26
  0
ARC
  8
LAYER0004
  6
CONTINUOUS
 62
       7
  5
159
 10
-34.34836066
 20
-633.70636786
 30
0.0
 40
7.0
 50
90.0
 51
270.0
  0
ARC
  8
LAYER0004
  6
CONTINUOUS
 62
       7
  5
15A
 10
-19.34836066
 20
-633.70636786
 30
0.0
 40
7.0
 50
270.0
 51
450.0
  0
LINE
  8
LAYER0004
  6
CONTINUOUS
 62
       7
  5
15B
 10
-34.34836066
 20
-626.70636786
 30
0.0
 11
-19.34836066
 21
-626.70636786
 31
0.0
  0
LINE
  8
LAYER0004
  6
CONTINUOUS
 62
       7
  5
15C
 10
-34.34836066
 20
-640.70636786
 30
0.0
 11
-19.34836066
 21
-640.70636786
 31
0.0
  0
LINE
  8
LAYER0004
  6
CENTER
 62
       7
  5
15D
 10
-48.17242728
 20
-633.70636786
 30
0.0
 11
4.29880441
 21
-633.70636786
 31
0.0
  0
ENDBLK
  8
0
  5
15E
  0
BLOCK
  8
0
  5
15F
  2
GROUP_27
 70
       0
 10
0.0
 20
0.0
 30
0.0
  3
GROUP_27
  0
ARC
  8
LAYER0004
  6
CONTINUOUS
 62
       7
  5
160
 10
-34.34836066
 20
-683.70636786
 30
0.0
 40
7.0
 50
90.0
 51
270.0
  0
ARC
  8
LAYER0004
  6
CONTINUOUS
 62
       7
  5
161
 10
-19.34836066
 20
-683.70636786
 30
0.0
 40
7.0
 50
270.0
 51
450.0
  0
LINE
  8
LAYER0004
  6
CONTINUOUS
 62
       7
  5
162
 10
-34.34836066
 20
-676.70636786
 30
0.0
 11
-19.34836066
 21
-676.70636786
 31
0.0
  0
LINE
  8
LAYER0004
  6
CONTINUOUS
 62
       7
  5
163
 10
-34.34836066
 20
-690.70636786
 30
0.0
 11
-19.34836066
 21
-690.70636786
 31
0.0
  0
LINE
  8
LAYER0004
  6
CENTER
 62
       7
  5
164
 10
-48.17242728
 20
-683.70636786
 30
0.0
 11
4.29880441
 21
-683.70636786
 31
0.0
  0
ENDBLK
  8
0
  5
165
  0
BLOCK
  8
0
  5
166
  2
GROUP_28
 70
       0
 10
0.0
 20
0.0
 30
0.0
  3
GROUP_28
  0
ARC
  8
LAYER0004
  6
CONTINUOUS
 62
       7
  5
167
 10
-1359.34836066
 20
-483.70636786
 30
0.0
 40
7.0
 50
270.0
 51
450.0
  0
ARC
  8
LAYER0004
  6
CONTINUOUS
 62
       7
  5
168
 10
-1374.34836066
 20
-483.70636786
 30
0.0
 40
7.0
 50
90.0
 51
270.0
  0
LINE
  8
LAYER0004
  6
CONTINUOUS
 62
       7
  5
169
 10
-1359.34836066
 20
-476.70636786
 30
0.0
 11
-1374.34836066
 21
-476.70636786
 31
0.0
  0
LINE
  8
LAYER0004
  6
CONTINUOUS
 62
       7
  5
16A
 10
-1359.34836066
 20
-490.70636786
 30
0.0
 11
-1374.34836066
 21
-490.70636786
 31
0.0
  0
LINE
  8
LAYER0004
  6
CENTER
 62
       7
  5
16B
 10
-1345.52429403
 20
-483.70636786
 30
0.0
 11
-1397.99552572
 21
-483.70636786
 31
0.0
  0
ENDBLK
  8
0
  5
16C
  0
BLOCK
  8
0
  5
16D
  2
GROUP_29
 70
       0
 10
0.0
 20
0.0
 30
0.0
  3
GROUP_29
  0
ARC
  8
LAYER0004
  6
CONTINUOUS
 62
       7
  5
16E
 10
-1359.34836066
 20
-533.70636786
 30
0.0
 40
7.0
 50
270.0
 51
450.0
  0
ARC
  8
LAYER0004
  6
CONTINUOUS
 62
       7
  5
16F
 10
-1374.34836066
 20
-533.70636786
 30
0.0
 40
7.0
 50
90.0
 51
270.0
  0
LINE
  8
LAYER0004
  6
CONTINUOUS
 62
       7
  5
170
 10
-1359.34836066
 20
-526.70636786
 30
0.0
 11
-1374.34836066
 21
-526.70636786
 31
0.0
  0
LINE
  8
LAYER0004
  6
CONTINUOUS
 62
       7
  5
171
 10
-1359.34836066
 20
-540.70636786
 30
0.0
 11
-1374.34836066
 21
-540.70636786
 31
0.0
  0
LINE
  8
LAYER0004
  6
CENTER
 62
       7
  5
172
 10
-1345.52429403
 20
-533.70636786
 30
0.0
 11
-1397.99552572
 21
-533.70636786
 31
0.0
  0
ENDBLK
  8
0
  5
173
  0
BLOCK
  8
0
  5
174
  2
GROUP_30
 70
       0
 10
0.0
 20
0.0
 30
0.0
  3
GROUP_30
  0
ARC
  8
LAYER0004
  6
CONTINUOUS
 62
       7
  5
175
 10
-1359.34836066
 20
-583.70636786
 30
0.0
 40
7.0
 50
270.0
 51
450.0
  0
ARC
  8
LAYER0004
  6
CONTINUOUS
 62
       7
  5
176
 10
-1374.34836066
 20
-583.70636786
 30
0.0
 40
7.0
 50
90.0
 51
270.0
  0
LINE
  8
LAYER0004
  6
CONTINUOUS
 62
       7
  5
177
 10
-1359.34836066
 20
-576.70636786
 30
0.0
 11
-1374.34836066
 21
-576.70636786
 31
0.0
  0
LINE
  8
LAYER0004
  6
CONTINUOUS
 62
       7
  5
178
 10
-1359.34836066
 20
-590.70636786
 30
0.0
 11
-1374.34836066
 21
-590.70636786
 31
0.0
  0
LINE
  8
LAYER0004
  6
CENTER
 62
       7
  5
179
 10
-1345.52429403
 20
-583.70636786
 30
0.0
 11
-1397.99552572
 21
-583.70636786
 31
0.0
  0
ENDBLK
  8
0
  5
17A
  0
BLOCK
  8
0
  5
17B
  2
GROUP_31
 70
       0
 10
0.0
 20
0.0
 30
0.0
  3
GROUP_31
  0
ARC
  8
LAYER0004
  6
CONTINUOUS
 62
       7
  5
17C
 10
-1359.34836066
 20
-633.70636786
 30
0.0
 40
7.0
 50
270.0
 51
450.0
  0
ARC
  8
LAYER0004
  6
CONTINUOUS
 62
       7
  5
17D
 10
-1374.34836066
 20
-633.70636786
 30
0.0
 40
7.0
 50
90.0
 51
270.0
  0
LINE
  8
LAYER0004
  6
CONTINUOUS
 62
       7
  5
17E
 10
-1359.34836066
 20
-626.70636786
 30
0.0
 11
-1374.34836066
 21
-626.70636786
 31
0.0
  0
LINE
  8
LAYER0004
  6
CONTINUOUS
 62
       7
  5
17F
 10
-1359.34836066
 20
-640.70636786
 30
0.0
 11
-1374.34836066
 21
-640.70636786
 31
0.0
  0
LINE
  8
LAYER0004
  6
CENTER
 62
       7
  5
180
 10
-1345.52429403
 20
-633.70636786
 30
0.0
 11
-1397.99552572
 21
-633.70636786
 31
0.0
  0
ENDBLK
  8
0
  5
181
  0
BLOCK
  8
0
  5
182
  2
GROUP_32
 70
       0
 10
0.0
 20
0.0
 30
0.0
  3
GROUP_32
  0
ARC
  8
LAYER0004
  6
CONTINUOUS
 62
       7
  5
183
 10
-1359.34836066
 20
-683.70636786
 30
0.0
 40
7.0
 50
270.0
 51
450.0
  0
ARC
  8
LAYER0004
  6
CONTINUOUS
 62
       7
  5
184
 10
-1374.34836066
 20
-683.70636786
 30
0.0
 40
7.0
 50
90.0
 51
270.0
  0
LINE
  8
LAYER0004
  6
CONTINUOUS
 62
       7
  5
185
 10
-1359.34836066
 20
-676.70636786
 30
0.0
 11
-1374.34836066
 21
-676.70636786
 31
0.0
  0
LINE
  8
LAYER0004
  6
CONTINUOUS
 62
       7
  5
186
 10
-1359.34836066
 20
-690.70636786
 30
0.0
 11
-1374.34836066
 21
-690.70636786
 31
0.0
  0
LINE
  8
LAYER0004
  6
CENTER
 62
       7
  5
187
 10
-1345.52429403
 20
-683.70636786
 30
0.0
 11
-1397.99552572
 21
-683.70636786
 31
0.0
  0
ENDBLK
  8
0
  5
188
  0
ENDSEC
  0
SECTION
  2
ENTITIES
  0
LINE
  8
ZUWAKU
  6
CONTINUOUS
 62
       7
  5
189
 10
1031.66666667
 20
-1067.5
 30
0.0
 11
1031.66666667
 21
-1405.0
 31
0.0
  0
LINE
  8
ZUWAKU
  6
CONTINUOUS
 62
       7
  5
18A
 10
1031.66666667
 20
-1105.0
 30
0.0
 11
2021.66666667
 21
-1105.0
 31
0.0
  0
LINE
  8
ZUWAKU
  6
CONTINUOUS
 62
       7
  5
18B
 10
1581.66666667
 20
-917.5
 30
0.0
 11
1581.66666667
 21
-1105.0
 31
0.0
  0
LINE
  8
ZUWAKU
  6
CONTINUOUS
 62
       7
  5
18C
 10
1616.66666667
 20
-1225.0
 30
0.0
 11
1616.66666667
 21
-1300.0
 31
0.0
  0
LINE
  8
ZUWAKU
  6
CONTINUOUS
 62
       7
  5
18D
 10
1629.16666667
 20
-1105.0
 30
0.0
 11
1629.16666667
 21
-1225.0
 31
0.0
  0
LINE
  8
ZUWAKU
  6
CONTINUOUS
 62
       7
  5
18E
 10
1031.66666667
 20
-1225.0
 30
0.0
 11
2021.66666667
 21
-1225.0
 31
0.0
  0
LINE
  8
ZUWAKU
  6
CONTINUOUS
 62
       7
  5
18F
 10
2021.66666667
 20
-1300.0
 30
0.0
 11
1031.66666667
 21
-1300.0
 31
0.0
  0
LINE
  8
ZUWAKU
  6
CONTINUOUS
 62
       7
  5
190
 10
1084.16666667
 20
-1105.0
 30
0.0
 11
1084.16666667
 21
-1300.0
 31
0.0
  0
LINE
  8
ZUWAKU
  6
CONTINUOUS
 62
       7
  5
191
 10
1669.16666667
 20
-1225.0
 30
0.0
 11
1669.16666667
 21
-1300.0
 31
0.0
  0
LINE
  8
ZUWAKU
  6
CONTINUOUS
 62
       7
  5
192
 10
1681.66666667
 20
-1105.0
 30
0.0
 11
1681.66666667
 21
-1225.0
 31
0.0
  0
LINE
  8
ZUWAKU
  6
CONTINUOUS
 62
       7
  5
193
 10
2021.66666667
 20
-1067.5
 30
0.0
 11
1031.66666667
 21
-1067.5
 31
0.0
  0
LINE
  8
ZUWAKU
  6
CONTINUOUS
 62
       7
  5
194
 10
1131.66666667
 20
-917.5
 30
0.0
 11
1131.66666667
 21
-1105.0
 31
0.0
  0
LINE
  8
ZUWAKU
  6
CONTINUOUS
 62
       7
  5
195
 10
1431.66666667
 20
-917.5
 30
0.0
 11
1431.66666667
 21
-1105.0
 31
0.0
  0
LINE
  8
ZUWAKU
  6
CONTINUOUS
 62
       7
  5
196
 10
1681.66666667
 20
-917.5
 30
0.0
 11
1681.66666667
 21
-1105.0
 31
0.0
  0
LINE
  8
ZUWAKU
  6
CONTINUOUS
 62
       7
  5
197
 10
1526.66666667
 20
-1225.0
 30
0.0
 11
1526.66666667
 21
-1405.0
 31
0.0
  0
LINE
  8
ZUWAKU
  6
CONTINUOUS
 62
       7
  5
198
 10
1474.16666667
 20
-1225.0
 30
0.0
 11
1474.16666667
 21
-1300.0
 31
0.0
  0
LINE
  8
ZUWAKU
  6
CONTINUOUS
 62
       7
  5
199
 10
1384.16666667
 20
-1225.0
 30
0.0
 11
1384.16666667
 21
-1300.0
 31
0.0
  0
LINE
  8
ZUWAKU
  6
CONTINUOUS
 62
       7
  5
19A
 10
1331.66666667
 20
-1225.0
 30
0.0
 11
1331.66666667
 21
-1300.0
 31
0.0
  0
LINE
  8
ZUWAKU
  6
CONTINUOUS
 62
       7
  5
19B
 10
1114.16666667
 20
-1300.0
 30
0.0
 11
1114.16666667
 21
-1405.0
 31
0.0
  0
LINE
  8
ZUWAKU
  6
CONTINUOUS
 62
       7
  5
19C
 10
1031.66666667
 20
-1067.5
 30
0.0
 11
2021.66666667
 21
-1067.5
 31
0.0
  0
ARC
  8
ZUWAKU
  6
CONTINUOUS
 62
       7
  5
19D
 10
1624.12780078
 20
-1330.46477393
 30
0.0
 40
0.65080334
 50
90.0
 51
270.0
  0
LINE
  8
ZUWAKU
  6
CONTINUOUS
 62
       7
  5
19E
 10
1624.12780078
 20
-1331.11557726
 30
0.0
 11
1630.31043247
 21
-1331.11557726
 31
0.0
  0
ARC
  8
ZUWAKU
  6
CONTINUOUS
 62
       7
  5
19F
 10
1630.31043247
 20
-1341.20302896
 30
0.0
 40
10.0874517
 50
0.0
 51
90.0
  0
LINE
  8
ZUWAKU
  6
CONTINUOUS
 62
       7
  5
1A0
 10
1640.39788416
 20
-1341.20302896
 30
0.0
 11
1640.39788416
 21
-1382.52904076
 31
0.0
  0
LINE
  8
ZUWAKU
  6
CONTINUOUS
 62
       7
  5
1A1
 10
1640.39788416
 20
-1382.52904076
 30
0.0
 11
1546.03140054
 21
-1382.52904076
 31
0.0
  0
LINE
  8
ZUWAKU
  6
CONTINUOUS
 62
       7
  5
1A2
 10
1546.03140054
 20
-1382.52904076
 30
0.0
 11
1546.03140054
 21
-1341.20302896
 31
0.0
  0
ARC
  8
ZUWAKU
  6
CONTINUOUS
 62
       7
  5
1A3
 10
1556.11885223
 20
-1341.20302896
 30
0.0
 40
10.0874517
 50
90.0
 51
180.0
  0
LINE
  8
ZUWAKU
  6
CONTINUOUS
 62
       7
  5
1A4
 10
1556.11885223
 20
-1331.11557726
 30
0.0
 11
1562.30148392
 21
-1331.11557726
 31
0.0
  0
ARC
  8
ZUWAKU
  6
CONTINUOUS
 62
       7
  5
1A5
 10
1562.30148392
 20
-1330.46477393
 30
0.0
 40
0.65080334
 50
270.0
 51
450.0
  0
LINE
  8
ZUWAKU
  6
CONTINUOUS
 62
       7
  5
1A6
 10
1562.30148392
 20
-1329.81397059
 30
0.0
 11
1556.11885223
 21
-1329.81397059
 31
0.0
  0
ARC
  8
ZUWAKU
  6
CONTINUOUS
 62
       7
  5
1A7
 10
1556.11885223
 20
-1341.20302896
 30
0.0
 40
11.38905837
 50
90.0
 51
180.0
  0
LINE
  8
ZUWAKU
  6
CONTINUOUS
 62
       7
  5
1A8
 10
1544.72979387
 20
-1341.20302896
 30
0.0
 11
1544.72979387
 21
-1383.83064743
 31
0.0
  0
LINE
  8
ZUWAKU
  6
CONTINUOUS
 62
       7
  5
1A9
 10
1544.72979387
 20
-1383.83064743
 30
0.0
 11
1641.69949084
 21
-1383.83064743
 31
0.0
  0
LINE
  8
ZUWAKU
  6
CONTINUOUS
 62
       7
  5
1AA
 10
1641.69949084
 20
-1383.83064743
 30
0.0
 11
1641.69949084
 21
-1341.20302896
 31
0.0
  0
ARC
  8
ZUWAKU
  6
CONTINUOUS
 62
       7
  5
1AB
 10
1630.31043247
 20
-1341.20302896
 30
0.0
 40
11.38905837
 50
0.0
 51
90.0
  0
LINE
  8
ZUWAKU
  6
CONTINUOUS
 62
       7
  5
1AC
 10
1630.31043247
 20
-1329.81397059
 30
0.0
 11
1624.12780078
 21
-1329.81397059
 31
0.0
  0
LINE
  8
ZUWAKU
  6
CONTINUOUS
 62
       7
  5
1AD
 10
1574.35064959
 20
-1361.24644652
 30
0.0
 11
1574.25447277
 21
-1361.98027684
 31
0.0
  0
LINE
  8
ZUWAKU
  6
CONTINUOUS
 62
       7
  5
1AE
 10
1574.25447277
 20
-1361.98027684
 30
0.0
 11
1574.24485817
 21
-1363.19588137
 31
0.0
  0
LINE
  8
ZUWAKU
  6
CONTINUOUS
 62
       7
  5
1AF
 10
1574.24485817
 20
-1363.19588137
 30
0.0
 11
1574.38268289
 21
-1364.42317789
 31
0.0
  0
LINE
  8
ZUWAKU
  6
CONTINUOUS
 62
       7
  5
1B0
 10
1574.38268289
 20
-1364.42317789
 30
0.0
 11
1574.66743068
 21
-1365.65341271
 31
0.0
  0
LINE
  8
ZUWAKU
  6
CONTINUOUS
 62
       7
  5
1B1
 10
1574.66743068
 20
-1365.65341271
 30
0.0
 11
1575.09758291
 21
-1366.87754189
 31
0.0
  0
LINE
  8
ZUWAKU
  6
CONTINUOUS
 62
       7
  5
1B2
 10
1575.09758291
 20
-1366.87754189
 30
0.0
 11
1575.67051894
 21
-1368.08630649
 31
0.0
  0
LINE
  8
ZUWAKU
  6
CONTINUOUS
 62
       7
  5
1B3
 10
1575.67051894
 20
-1368.08630649
 30
0.0
 11
1576.38245451
 21
-1369.27035262
 31
0.0
  0
LINE
  8
ZUWAKU
  6
CONTINUOUS
 62
       7
  5
1B4
 10
1576.38245451
 20
-1369.27035262
 30
0.0
 11
1577.22842641
 21
-1370.42036957
 31
0.0
  0
LINE
  8
ZUWAKU
  6
CONTINUOUS
 62
       7
  5
1B5
 10
1577.22842641
 20
-1370.42036957
 30
0.0
 11
1578.20231775
 21
-1371.52722507
 31
0.0
  0
LINE
  8
ZUWAKU
  6
CONTINUOUS
 62
       7
  5
1B6
 10
1578.20231775
 20
-1371.52722507
 30
0.0
 11
1579.2969127
 21
-1372.58208616
 31
0.0
  0
LINE
  8
ZUWAKU
  6
CONTINUOUS
 62
       7
  5
1B7
 10
1579.2969127
 20
-1372.58208616
 30
0.0
 11
1580.50396969
 21
-1373.57652228
 31
0.0
  0
LINE
  8
ZUWAKU
  6
CONTINUOUS
 62
       7
  5
1B8
 10
1580.50396969
 20
-1373.57652228
 30
0.0
 11
1581.81430539
 21
-1374.50259159
 31
0.0
  0
LINE
  8
ZUWAKU
  6
CONTINUOUS
 62
       7
  5
1B9
 10
1581.81430539
 20
-1374.50259159
 30
0.0
 11
1583.21788435
 21
-1375.35291331
 31
0.0
  0
LINE
  8
ZUWAKU
  6
CONTINUOUS
 62
       7
  5
1BA
 10
1583.21788435
 20
-1375.35291331
 30
0.0
 11
1584.70391201
 21
-1376.12072906
 31
0.0
  0
LINE
  8
ZUWAKU
  6
CONTINUOUS
 62
       7
  5
1BB
 10
1584.70391201
 20
-1376.12072906
 30
0.0
 11
1586.26092988
 21
-1376.79995535
 31
0.0
  0
LINE
  8
ZUWAKU
  6
CONTINUOUS
 62
       7
  5
1BC
 10
1586.26092988
 20
-1376.79995535
 30
0.0
 11
1587.87691244
 21
-1377.38522898
 31
0.0
  0
LINE
  8
ZUWAKU
  6
CONTINUOUS
 62
       7
  5
1BD
 10
1587.87691244
 20
-1377.38522898
 30
0.0
 11
1589.53936573
 21
-1377.8719462
 31
0.0
  0
LINE
  8
ZUWAKU
  6
CONTINUOUS
 62
       7
  5
1BE
 10
1589.53936573
 20
-1377.8719462
 30
0.0
 11
1591.23542745
 21
-1378.25629614
 31
0.0
  0
LINE
  8
ZUWAKU
  6
CONTINUOUS
 62
       7
  5
1BF
 10
1591.23542745
 20
-1378.25629614
 30
0.0
 11
1592.95196852
 21
-1378.53528898
 31
0.0
  0
LINE
  8
ZUWAKU
  6
CONTINUOUS
 62
       7
  5
1C0
 10
1592.95196852
 20
-1378.53528898
 30
0.0
 11
1594.67569585
 21
-1378.7067786
 31
0.0
  0
LINE
  8
ZUWAKU
  6
CONTINUOUS
 62
       7
  5
1C1
 10
1594.67569585
 20
-1378.7067786
 30
0.0
 11
1596.39325615
 21
-1378.76948006
 31
0.0
  0
LINE
  8
ZUWAKU
  6
CONTINUOUS
 62
       7
  5
1C2
 10
1596.39325615
 20
-1378.76948006
 30
0.0
 11
1598.09134062
 21
-1378.72298157
 31
0.0
  0
LINE
  8
ZUWAKU
  6
CONTINUOUS
 62
       7
  5
1C3
 10
1598.09134062
 20
-1378.72298157
 30
0.0
 11
1599.75679032
 21
-1378.56775097
 31
0.0
  0
LINE
  8
ZUWAKU
  6
CONTINUOUS
 62
       7
  5
1C4
 10
1599.75679032
 20
-1378.56775097
 30
0.0
 11
1601.3767022
 21
-1378.30513633
 31
0.0
  0
LINE
  8
ZUWAKU
  6
CONTINUOUS
 62
       7
  5
1C5
 10
1601.3767022
 20
-1378.30513633
 30
0.0
 11
1602.93853597
 21
-1377.93736021
 31
0.0
  0
LINE
  8
ZUWAKU
  6
CONTINUOUS
 62
       7
  5
1C6
 10
1602.93853597
 20
-1377.93736021
 30
0.0
 11
1604.43022205
 21
-1377.4675066
 31
0.0
  0
LINE
  8
ZUWAKU
  6
CONTINUOUS
 62
       7
  5
1C7
 10
1604.43022205
 20
-1377.4675066
 30
0.0
 11
1605.84027073
 21
-1376.89949891
 31
0.0
  0
LINE
  8
ZUWAKU
  6
CONTINUOUS
 62
       7
  5
1C8
 10
1605.84027073
 20
-1376.89949891
 30
0.0
 11
1607.15788243
 21
-1376.23806649
 31
0.0
  0
LINE
  8
ZUWAKU
  6
CONTINUOUS
 62
       7
  5
1C9
 10
1607.15788243
 20
-1376.23806649
 30
0.0
 11
1608.37305785
 21
-1375.48869599
 31
0.0
  0
LINE
  8
ZUWAKU
  6
CONTINUOUS
 62
       7
  5
1CA
 10
1608.37305785
 20
-1375.48869599
 30
0.0
 11
1609.4767045
 21
-1374.65756329
 31
0.0
  0
LINE
  8
ZUWAKU
  6
CONTINUOUS
 62
       7
  5
1CB
 10
1609.4767045
 20
-1374.65756329
 30
0.0
 11
1610.46304494
 21
-1373.74931272
 31
0.0
  0
ARC
  8
ZUWAKU
  6
CONTINUOUS
 62
       7
  5
1CC
 10
1621.93943133
 20
-1374.77835084
 30
0.0
 40
0.32540167
 50
349.0
 51
405.0
  0
LINE
  8
ZUWAKU
  6
CONTINUOUS
 62
       7
  5
1CD
 10
1622.16952506
 20
-1374.54825711
 30
0.0
 11
1614.27192215
 21
-1366.65065421
 31
0.0
  0
ARC
  8
ZUWAKU
  6
CONTINUOUS
 62
       7
  5
1CE
 10
1615.41476319
 20
-1366.41293289
 30
0.0
 40
0.976205
 50
169.0
 51
225.0
  0
LINE
  8
ZUWAKU
  6
CONTINUOUS
 62
       7
  5
1CF
 10
1614.45649382
 20
-1366.22666419
 30
0.0
 11
1614.64442931
 21
-1365.25981993
 31
0.0
  0
LINE
  8
ZUWAKU
  6
CONTINUOUS
 62
       7
  5
1D0
 10
1614.80759717
 20
-1364.01484716
 30
0.0
 11
1614.81783573
 21
-1362.72035281
 31
0.0
  0
LINE
  8
ZUWAKU
  6
CONTINUOUS
 62
       7
  5
1D1
 10
1610.79323984
 20
-1354.08180402
 30
0.0
 11
1609.54805529
 21
-1352.88181974
 31
0.0
  0
LINE
  8
ZUWAKU
  6
CONTINUOUS
 62
       7
  5
1D2
 10
1609.54805529
 20
-1352.88181974
 30
0.0
 11
1608.30288637
 21
-1351.85598503
 31
0.0
  0
LINE
  8
ZUWAKU
  6
CONTINUOUS
 62
       7
  5
1D3
 10
1608.30288637
 20
-1351.85598503
 30
0.0
 11
1606.95415499
 21
-1350.90277988
 31
0.0
  0
LINE
  8
ZUWAKU
  6
CONTINUOUS
 62
       7
  5
1D4
 10
1606.95415499
 20
-1350.90277988
 30
0.0
 11
1605.51206283
 21
-1350.02912594
 31
0.0
  0
LINE
  8
ZUWAKU
  6
CONTINUOUS
 62
       7
  5
1D5
 10
1605.51206283
 20
-1350.02912594
 30
0.0
 11
1603.98747261
 21
-1349.2413853
 31
0.0
  0
LINE
  8
ZUWAKU
  6
CONTINUOUS
 62
       7
  5
1D6
 10
1603.98747261
 20
-1349.2413853
 30
0.0
 11
1602.39183845
 21
-1348.54531321
 31
0.0
  0
LINE
  8
ZUWAKU
  6
CONTINUOUS
 62
       7
  5
1D7
 10
1602.39183845
 20
-1348.54531321
 30
0.0
 11
1600.73712841
 21
-1347.94601333
 31
0.0
  0
LINE
  8
ZUWAKU
  6
CONTINUOUS
 62
       7
  5
1D8
 10
1600.73712841
 20
-1347.94601333
 30
0.0
 11
1599.03574048
 21
-1347.44789721
 31
0.0
  0
LINE
  8
ZUWAKU
  6
CONTINUOUS
 62
       7
  5
1D9
 10
1599.03574048
 20
-1347.44789721
 30
0.0
 11
1597.30041323
 21
-1347.05464917
 31
0.0
  0
LINE
  8
ZUWAKU
  6
CONTINUOUS
 62
       7
  5
1DA
 10
1597.30041323
 20
-1347.05464917
 30
0.0
 11
1595.54413252
 21
-1346.76919737
 31
0.0
  0
LINE
  8
ZUWAKU
  6
CONTINUOUS
 62
       7
  5
1DB
 10
1595.54413252
 20
-1346.76919737
 30
0.0
 11
1593.78003552
 21
-1346.59369147
 31
0.0
  0
LINE
  8
ZUWAKU
  6
CONTINUOUS
 62
       7
  5
1DC
 10
1593.78003552
 20
-1346.59369147
 30
0.0
 11
1592.0213134
 21
-1346.52948735
 31
0.0
  0
LINE
  8
ZUWAKU
  6
CONTINUOUS
 62
       7
  5
1DD
 10
1592.0213134
 20
-1346.52948735
 30
0.0
 11
1590.28111397
 21
-1346.57713907
 31
0.0
  0
LINE
  8
ZUWAKU
  6
CONTINUOUS
 62
       7
  5
1DE
 10
1590.28111397
 20
-1346.57713907
 30
0.0
 11
1588.5724457
 21
-1346.73639792
 31
0.0
  0
LINE
  8
ZUWAKU
  6
CONTINUOUS
 62
       7
  5
1DF
 10
1588.5724457
 20
-1346.73639792
 30
0.0
 11
1586.90808461
 21
-1347.00621852
 31
0.0
  0
LINE
  8
ZUWAKU
  6
CONTINUOUS
 62
       7
  5
1E0
 10
1586.90808461
 20
-1347.00621852
 30
0.0
 11
1585.30048572
 21
-1347.38477128
 31
0.0
  0
LINE
  8
ZUWAKU
  6
CONTINUOUS
 62
       7
  5
1E1
 10
1585.30048572
 20
-1347.38477128
 30
0.0
 11
1583.76170075
 21
-1347.86946017
 31
0.0
  0
LINE
  8
ZUWAKU
  6
CONTINUOUS
 62
       7
  5
1E2
 10
1583.76170075
 20
-1347.86946017
 30
0.0
 11
1582.30330368
 21
-1348.45694396
 31
0.0
  0
LINE
  8
ZUWAKU
  6
CONTINUOUS
 62
       7
  5
1E3
 10
1582.30330368
 20
-1348.45694396
 30
0.0
 11
1580.93632557
 21
-1349.143158
 31
0.0
  0
LINE
  8
ZUWAKU
  6
CONTINUOUS
 62
       7
  5
1E4
 10
1580.93632557
 20
-1349.143158
 30
0.0
 11
1579.67119844
 21
-1349.92333255
 31
0.0
  0
LINE
  8
ZUWAKU
  6
CONTINUOUS
 62
       7
  5
1E5
 10
1579.67119844
 20
-1349.92333255
 30
0.0
 11
1578.51770642
 21
-1350.79200273
 31
0.0
  0
LINE
  8
ZUWAKU
  6
CONTINUOUS
 62
       7
  5
1E6
 10
1578.51770642
 20
-1350.79200273
 30
0.0
 11
1577.48493804
 21
-1351.74300549
 31
0.0
  0
LINE
  8
ZUWAKU
  6
CONTINUOUS
 62
       7
  5
1E7
 10
1577.48493804
 20
-1351.74300549
 30
0.0
 11
1576.42946528
 21
-1352.94184021
 31
0.0
  0
LINE
  8
ZUWAKU
  6
CONTINUOUS
 62
       7
  5
1E8
 10
1574.61196974
 20
-1356.61758416
 30
0.0
 11
1574.39198397
 21
-1357.4661715
 31
0.0
  0
LINE
  8
ZUWAKU
  6
CONTINUOUS
 62
       7
  5
1E9
 10
1574.39198397
 20
-1357.4661715
 30
0.0
 11
1574.22490088
 21
-1358.74101755
 31
0.0
  0
LINE
  8
ZUWAKU
  6
CONTINUOUS
 62
       7
  5
1EA
 10
1574.22490088
 20
-1358.74101755
 30
0.0
 11
1574.21466231
 21
-1360.03551191
 31
0.0
  0
LINE
  8
ZUWAKU
  6
CONTINUOUS
 62
       7
  5
1EB
 10
1574.21466231
 20
-1360.03551191
 30
0.0
 11
1574.36104389
 21
-1361.33900523
 31
0.0
  0
LINE
  8
ZUWAKU
  6
CONTINUOUS
 62
       7
  5
1EC
 10
1574.36104389
 20
-1361.33900523
 30
0.0
 11
1574.66239888
 21
-1362.6409904
 31
0.0
  0
LINE
  8
ZUWAKU
  6
CONTINUOUS
 62
       7
  5
1ED
 10
1574.66239888
 20
-1362.6409904
 30
0.0
 11
1575.11578532
 21
-1363.93123961
 31
0.0
  0
LINE
  8
ZUWAKU
  6
CONTINUOUS
 62
       7
  5
1EE
 10
1575.11578532
 20
-1363.93123961
 30
0.0
 11
1575.71709959
 21
-1365.19987586
 31
0.0
  0
LINE
  8
ZUWAKU
  6
CONTINUOUS
 62
       7
  5
1EF
 10
1575.71709959
 20
-1365.19987586
 30
0.0
 11
1576.46118919
 21
-1366.43739854
 31
0.0
  0
LINE
  8
ZUWAKU
  6
CONTINUOUS
 62
       7
  5
1F0
 10
1576.46118919
 20
-1366.43739854
 30
0.0
 11
1577.34193611
 21
-1367.63468875
 31
0.0
  0
LINE
  8
ZUWAKU
  6
CONTINUOUS
 62
       7
  5
1F1
 10
1577.34193611
 20
-1367.63468875
 30
0.0
 11
1578.35231584
 21
-1368.78301434
 31
0.0
  0
LINE
  8
ZUWAKU
  6
CONTINUOUS
 62
       7
  5
1F2
 10
1578.35231584
 20
-1368.78301434
 30
0.0
 11
1579.48444275
 21
-1369.87404498
 31
0.0
  0
LINE
  8
ZUWAKU
  6
CONTINUOUS
 62
       7
  5
1F3
 10
1579.48444275
 20
-1369.87404498
 30
0.0
 11
1580.72961168
 21
-1370.89987969
 31
0.0
  0
LINE
  8
ZUWAKU
  6
CONTINUOUS
 62
       7
  5
1F4
 10
1580.72961168
 20
-1370.89987969
 30
0.0
 11
1582.07834305
 21
-1371.85308484
 31
0.0
  0
LINE
  8
ZUWAKU
  6
CONTINUOUS
 62
       7
  5
1F5
 10
1582.07834305
 20
-1371.85308484
 30
0.0
 11
1583.52043521
 21
-1372.72673878
 31
0.0
  0
LINE
  8
ZUWAKU
  6
CONTINUOUS
 62
       7
  5
1F6
 10
1583.52043521
 20
-1372.72673878
 30
0.0
 11
1585.04502543
 21
-1373.51447942
 31
0.0
  0
LINE
  8
ZUWAKU
  6
CONTINUOUS
 62
       7
  5
1F7
 10
1585.04502543
 20
-1373.51447942
 30
0.0
 11
1586.6406596
 21
-1374.2105515
 31
0.0
  0
LINE
  8
ZUWAKU
  6
CONTINUOUS
 62
       7
  5
1F8
 10
1586.6406596
 20
-1374.2105515
 30
0.0
 11
1588.29536963
 21
-1374.80985139
 31
0.0
  0
LINE
  8
ZUWAKU
  6
CONTINUOUS
 62
       7
  5
1F9
 10
1588.29536963
 20
-1374.80985139
 30
0.0
 11
1589.99675756
 21
-1375.30796751
 31
0.0
  0
LINE
  8
ZUWAKU
  6
CONTINUOUS
 62
       7
  5
1FA
 10
1589.99675756
 20
-1375.30796751
 30
0.0
 11
1591.73208481
 21
-1375.70121555
 31
0.0
  0
LINE
  8
ZUWAKU
  6
CONTINUOUS
 62
       7
  5
1FB
 10
1591.73208481
 20
-1375.70121555
 30
0.0
 11
1593.48836552
 21
-1375.98666735
 31
0.0
  0
LINE
  8
ZUWAKU
  6
CONTINUOUS
 62
       7
  5
1FC
 10
1593.48836552
 20
-1375.98666735
 30
0.0
 11
1595.25246252
 21
-1376.16217325
 31
0.0
  0
LINE
  8
ZUWAKU
  6
CONTINUOUS
 62
       7
  5
1FD
 10
1595.25246252
 20
-1376.16217325
 30
0.0
 11
1597.01118464
 21
-1376.22637737
 31
0.0
  0
LINE
  8
ZUWAKU
  6
CONTINUOUS
 62
       7
  5
1FE
 10
1597.01118464
 20
-1376.22637737
 30
0.0
 11
1598.75138407
 21
-1376.17872565
 31
0.0
  0
LINE
  8
ZUWAKU
  6
CONTINUOUS
 62
       7
  5
1FF
 10
1598.75138407
 20
-1376.17872565
 30
0.0
 11
1600.46005234
 21
-1376.0194668
 31
0.0
  0
LINE
  8
ZUWAKU
  6
CONTINUOUS
 62
       7
  5
200
 10
1600.46005234
 20
-1376.0194668
 30
0.0
 11
1602.12441344
 21
-1375.7496462
 31
0.0
  0
LINE
  8
ZUWAKU
  6
CONTINUOUS
 62
       7
  5
201
 10
1602.12441344
 20
-1375.7496462
 30
0.0
 11
1603.73201232
 21
-1375.37109344
 31
0.0
  0
LINE
  8
ZUWAKU
  6
CONTINUOUS
 62
       7
  5
202
 10
1603.73201232
 20
-1375.37109344
 30
0.0
 11
1605.2707973
 21
-1374.88640455
 31
0.0
  0
LINE
  8
ZUWAKU
  6
CONTINUOUS
 62
       7
  5
203
 10
1605.2707973
 20
-1374.88640455
 30
0.0
 11
1606.72919436
 21
-1374.29892076
 31
0.0
  0
LINE
  8
ZUWAKU
  6
CONTINUOUS
 62
       7
  5
204
 10
1606.72919436
 20
-1374.29892076
 30
0.0
 11
1608.09617247
 21
-1373.61270672
 31
0.0
  0
LINE
  8
ZUWAKU
  6
CONTINUOUS
 62
       7
  5
205
 10
1608.09617247
 20
-1373.61270672
 30
0.0
 11
1609.3612996
 21
-1372.83253217
 31
0.0
  0
LINE
  8
ZUWAKU
  6
CONTINUOUS
 62
       7
  5
206
 10
1609.3612996
 20
-1372.83253217
 30
0.0
 11
1610.51479162
 21
-1371.96386199
 31
0.0
  0
LINE
  8
ZUWAKU
  6
CONTINUOUS
 62
       7
  5
207
 10
1610.51479162
 20
-1371.96386199
 30
0.0
 11
1611.54756001
 21
-1371.01285923
 31
0.0
  0
LINE
  8
ZUWAKU
  6
CONTINUOUS
 62
       7
  5
208
 10
1611.54756001
 20
-1371.01285923
 30
0.0
 11
1611.69037214
 21
-1370.85064932
 31
0.0
  0
ARC
  8
ZUWAKU
  6
CONTINUOUS
 62
       7
  5
209
 10
1620.33244709
 20
-1373.53951656
 30
0.0
 40
0.585723
 50
248.95117018
 51
405.0
  0
LINE
  8
ZUWAKU
  6
CONTINUOUS
 62
       7
  5
20A
 10
1614.27192215
 20
-1366.65065421
 30
0.0
 11
1614.31786508
 21
-1366.53430033
 31
0.0
  0
LINE
  8
ZUWAKU
  6
CONTINUOUS
 62
       7
  5
20B
 10
1614.31786508
 20
-1366.53430033
 30
0.0
 11
1614.64051407
 21
-1365.28969322
 31
0.0
  0
LINE
  8
ZUWAKU
  6
CONTINUOUS
 62
       7
  5
20C
 10
1614.64051407
 20
-1365.28969322
 30
0.0
 11
1614.80759717
 21
-1364.01484716
 31
0.0
  0
LINE
  8
ZUWAKU
  6
CONTINUOUS
 62
       7
  5
20D
 10
1614.81783573
 20
-1362.72035281
 30
0.0
 11
1614.67145416
 21
-1361.41685949
 31
0.0
  0
LINE
  8
ZUWAKU
  6
CONTINUOUS
 62
       7
  5
20E
 10
1614.67145416
 20
-1361.41685949
 30
0.0
 11
1614.37009916
 21
-1360.11487432
 31
0.0
  0
LINE
  8
ZUWAKU
  6
CONTINUOUS
 62
       7
  5
20F
 10
1614.37009916
 20
-1360.11487432
 30
0.0
 11
1613.94978965
 21
-1358.91875559
 31
0.0
  0
LINE
  8
ZUWAKU
  6
CONTINUOUS
 62
       7
  5
210
 10
1575.0089709
 20
-1354.77219846
 30
0.0
 11
1575.39116483
 21
-1354.91928281
 31
0.0
  0
LINE
  8
ZUWAKU
  6
CONTINUOUS
 62
       7
  5
211
 10
1575.39116483
 20
-1354.91928281
 30
0.0
 11
1575.46235467
 21
-1354.78766079
 31
0.0
  0
LINE
  8
ZUWAKU
  6
CONTINUOUS
 62
       7
  5
212
 10
1575.46235467
 20
-1354.78766079
 30
0.0
 11
1575.0089709
 21
-1354.77219846
 31
0.0
  0
LINE
  8
ZUWAKU
  6
CONTINUOUS
 62
       7
  5
213
 10
1576.44404834
 20
-1357.32085324
 30
0.0
 11
1576.30973937
 21
-1357.83894538
 31
0.0
  0
LINE
  8
ZUWAKU
  6
CONTINUOUS
 62
       7
  5
214
 10
1576.30973937
 20
-1357.83894538
 30
0.0
 11
1576.16350484
 21
-1358.95471663
 31
0.0
  0
LINE
  8
ZUWAKU
  6
CONTINUOUS
 62
       7
  5
215
 10
1576.16350484
 20
-1358.95471663
 30
0.0
 11
1576.15453066
 21
-1360.08935023
 31
0.0
  0
LINE
  8
ZUWAKU
  6
CONTINUOUS
 62
       7
  5
216
 10
1576.15453066
 20
-1360.08935023
 30
0.0
 11
1576.28318743
 21
-1361.23500837
 31
0.0
  0
LINE
  8
ZUWAKU
  6
CONTINUOUS
 62
       7
  5
217
 10
1576.28318743
 20
-1361.23500837
 30
0.0
 11
1576.54902868
 21
-1362.38355867
 31
0.0
  0
LINE
  8
ZUWAKU
  6
CONTINUOUS
 62
       7
  5
218
 10
1576.54902868
 20
-1362.38355867
 30
0.0
 11
1576.95067967
 21
-1363.52657887
 31
0.0
  0
LINE
  8
ZUWAKU
  6
CONTINUOUS
 62
       7
  5
219
 10
1576.95067967
 20
-1363.52657887
 30
0.0
 11
1577.48573665
 21
-1364.65542732
 31
0.0
  0
LINE
  8
ZUWAKU
  6
CONTINUOUS
 62
       7
  5
21A
 10
1577.48573665
 20
-1364.65542732
 30
0.0
 11
1578.15070366
 21
-1365.76135833
 31
0.0
  0
LINE
  8
ZUWAKU
  6
CONTINUOUS
 62
       7
  5
21B
 10
1578.15070366
 20
-1365.76135833
 30
0.0
 11
1578.94097496
 21
-1366.83565569
 31
0.0
  0
LINE
  8
ZUWAKU
  6
CONTINUOUS
 62
       7
  5
21C
 10
1578.94097496
 20
-1366.83565569
 30
0.0
 11
1579.85085756
 21
-1367.86976341
 31
0.0
  0
LINE
  8
ZUWAKU
  6
CONTINUOUS
 62
       7
  5
21D
 10
1579.85085756
 20
-1367.86976341
 30
0.0
 11
1580.87362277
 21
-1368.85540218
 31
0.0
  0
LINE
  8
ZUWAKU
  6
CONTINUOUS
 62
       7
  5
21E
 10
1580.87362277
 20
-1368.85540218
 30
0.0
 11
1582.0015757
 21
-1369.78466828
 31
0.0
  0
LINE
  8
ZUWAKU
  6
CONTINUOUS
 62
       7
  5
21F
 10
1582.0015757
 20
-1369.78466828
 30
0.0
 11
1583.22613504
 21
-1370.65011583
 31
0.0
  0
LINE
  8
ZUWAKU
  6
CONTINUOUS
 62
       7
  5
220
 10
1583.22613504
 20
-1370.65011583
 30
0.0
 11
1584.53791816
 21
-1371.44482544
 31
0.0
  0
LINE
  8
ZUWAKU
  6
CONTINUOUS
 62
       7
  5
221
 10
1584.53791816
 20
-1371.44482544
 30
0.0
 11
1585.92682911
 21
-1372.16246194
 31
0.0
  0
LINE
  8
ZUWAKU
  6
CONTINUOUS
 62
       7
  5
222
 10
1585.92682911
 20
-1372.16246194
 30
0.0
 11
1587.38214853
 21
-1372.79732377
 31
0.0
  0
LINE
  8
ZUWAKU
  6
CONTINUOUS
 62
       7
  5
223
 10
1587.38214853
 20
-1372.79732377
 30
0.0
 11
1588.89262487
 21
-1373.34438536
 31
0.0
  0
LINE
  8
ZUWAKU
  6
CONTINUOUS
 62
       7
  5
224
 10
1588.89262487
 20
-1373.34438536
 30
0.0
 11
1590.44656716
 21
-1373.79933375
 31
0.0
  0
LINE
  8
ZUWAKU
  6
CONTINUOUS
 62
       7
  5
225
 10
1590.44656716
 20
-1373.79933375
 30
0.0
 11
1592.03193891
 21
-1374.15859989
 31
0.0
  0
LINE
  8
ZUWAKU
  6
CONTINUOUS
 62
       7
  5
226
 10
1592.03193891
 20
-1374.15859989
 30
0.0
 11
1593.63645348
 21
-1374.41938484
 31
0.0
  0
LINE
  8
ZUWAKU
  6
CONTINUOUS
 62
       7
  5
227
 10
1593.63645348
 20
-1374.41938484
 30
0.0
 11
1595.24767034
 21
-1374.57968106
 31
0.0
  0
LINE
  8
ZUWAKU
  6
CONTINUOUS
 62
       7
  5
228
 10
1595.24767034
 20
-1374.57968106
 30
0.0
 11
1596.8530925
 21
-1374.63828879
 31
0.0
  0
LINE
  8
ZUWAKU
  6
CONTINUOUS
 62
       7
  5
229
 10
1596.8530925
 20
-1374.63828879
 30
0.0
 11
1598.44026459
 21
-1374.5948274
 31
0.0
  0
LINE
  8
ZUWAKU
  6
CONTINUOUS
 62
       7
  5
22A
 10
1598.44026459
 20
-1374.5948274
 30
0.0
 11
1599.99687177
 21
-1374.44974162
 31
0.0
  0
LINE
  8
ZUWAKU
  6
CONTINUOUS
 62
       7
  5
22B
 10
1599.99687177
 20
-1374.44974162
 30
0.0
 11
1601.51083936
 21
-1374.20430231
 31
0.0
  0
LINE
  8
ZUWAKU
  6
CONTINUOUS
 62
       7
  5
22C
 10
1601.51083936
 20
-1374.20430231
 30
0.0
 11
1602.97043337
 21
-1373.86060131
 31
0.0
  0
LINE
  8
ZUWAKU
  6
CONTINUOUS
 62
       7
  5
22D
 10
1602.97043337
 20
-1373.86060131
 30
0.0
 11
1604.36436232
 21
-1373.4215394
 31
0.0
  0
LINE
  8
ZUWAKU
  6
CONTINUOUS
 62
       7
  5
22E
 10
1604.36436232
 20
-1373.4215394
 30
0.0
 11
1605.68188049
 21
-1372.89080563
 31
0.0
  0
LINE
  8
ZUWAKU
  6
CONTINUOUS
 62
       7
  5
22F
 10
1605.68188049
 20
-1372.89080563
 30
0.0
 11
1606.91289252
 21
-1372.27284567
 31
0.0
  0
LINE
  8
ZUWAKU
  6
CONTINUOUS
 62
       7
  5
230
 10
1606.91289252
 20
-1372.27284567
 30
0.0
 11
1608.04805818
 21
-1371.57281534
 31
0.0
  0
LINE
  8
ZUWAKU
  6
CONTINUOUS
 62
       7
  5
231
 10
1608.04805818
 20
-1371.57281534
 30
0.0
 11
1609.07889391
 21
-1370.79651499
 31
0.0
  0
LINE
  8
ZUWAKU
  6
CONTINUOUS
 62
       7
  5
232
 10
1609.07889391
 20
-1370.79651499
 30
0.0
 11
1609.8057457
 21
-1370.12720901
 31
0.0
  0
LINE
  8
ZUWAKU
  6
CONTINUOUS
 62
       7
  5
233
 10
1612.96774686
 20
-1369.24967333
 30
0.0
 11
1613.21841217
 21
-1368.89211249
 31
0.0
  0
LINE
  8
ZUWAKU
  6
CONTINUOUS
 62
       7
  5
234
 10
1613.21841217
 20
-1368.89211249
 30
0.0
 11
1613.40579884
 21
-1368.54565561
 31
0.0
  0
LINE
  8
ZUWAKU
  6
CONTINUOUS
 62
       7
  5
235
 10
1613.40579884
 20
-1368.54565561
 30
0.0
 11
1614.82134698
 21
-1369.96120375
 31
0.0
  0
LINE
  8
ZUWAKU
  6
CONTINUOUS
 62
       7
  5
236
 10
1612.24996187
 20
-1359.70778937
 30
0.0
 11
1612.48346936
 21
-1360.37230605
 31
0.0
  0
LINE
  8
ZUWAKU
  6
CONTINUOUS
 62
       7
  5
237
 10
1612.48346936
 20
-1360.37230605
 30
0.0
 11
1612.74931061
 21
-1361.52085635
 31
0.0
  0
LINE
  8
ZUWAKU
  6
CONTINUOUS
 62
       7
  5
238
 10
1612.74931061
 20
-1361.52085635
 30
0.0
 11
1612.87796738
 21
-1362.66651449
 31
0.0
  0
LINE
  8
ZUWAKU
  6
CONTINUOUS
 62
       7
  5
239
 10
1612.87796738
 20
-1362.66651449
 30
0.0
 11
1612.8689932
 21
-1363.80114809
 31
0.0
  0
LINE
  8
ZUWAKU
  6
CONTINUOUS
 62
       7
  5
23A
 10
1612.8689932
 20
-1363.80114809
 30
0.0
 11
1612.72275868
 21
-1364.91691933
 31
0.0
  0
LINE
  8
ZUWAKU
  6
CONTINUOUS
 62
       7
  5
23B
 10
1612.72275868
 20
-1364.91691933
 30
0.0
 11
1612.6847612
 21
-1365.06349326
 31
0.0
  0
LINE
  8
ZUWAKU
  6
CONTINUOUS
 62
       7
  5
23C
 10
1612.6847612
 20
-1365.06349326
 30
0.0
 11
1608.88911192
 21
-1361.26784398
 31
0.0
  0
LINE
  8
ZUWAKU
  6
CONTINUOUS
 62
       7
  5
23D
 10
1578.84413043
 20
-1353.0219429
 30
0.0
 11
1579.03463387
 21
-1352.80556391
 31
0.0
  0
LINE
  8
ZUWAKU
  6
CONTINUOUS
 62
       7
  5
23E
 10
1579.03463387
 20
-1352.80556391
 30
0.0
 11
1579.95360414
 21
-1351.95934973
 31
0.0
  0
LINE
  8
ZUWAKU
  6
CONTINUOUS
 62
       7
  5
23F
 10
1579.95360414
 20
-1351.95934973
 30
0.0
 11
1580.98443987
 21
-1351.18304938
 31
0.0
  0
LINE
  8
ZUWAKU
  6
CONTINUOUS
 62
       7
  5
240
 10
1580.98443987
 20
-1351.18304938
 30
0.0
 11
1582.11960553
 21
-1350.48301905
 31
0.0
  0
LINE
  8
ZUWAKU
  6
CONTINUOUS
 62
       7
  5
241
 10
1582.11960553
 20
-1350.48301905
 30
0.0
 11
1583.35061755
 21
-1349.86505909
 31
0.0
  0
LINE
  8
ZUWAKU
  6
CONTINUOUS
 62
       7
  5
242
 10
1583.35061755
 20
-1349.86505909
 30
0.0
 11
1584.66813572
 21
-1349.33432532
 31
0.0
  0
LINE
  8
ZUWAKU
  6
CONTINUOUS
 62
       7
  5
243
 10
1584.66813572
 20
-1349.33432532
 30
0.0
 11
1586.06206468
 21
-1348.89526341
 31
0.0
  0
LINE
  8
ZUWAKU
  6
CONTINUOUS
 62
       7
  5
244
 10
1586.06206468
 20
-1348.89526341
 30
0.0
 11
1587.52165869
 21
-1348.55156241
 31
0.0
  0
LINE
  8
ZUWAKU
  6
CONTINUOUS
 62
       7
  5
245
 10
1587.52165869
 20
-1348.55156241
 30
0.0
 11
1589.03562627
 21
-1348.3061231
 31
0.0
  0
LINE
  8
ZUWAKU
  6
CONTINUOUS
 62
       7
  5
246
 10
1589.03562627
 20
-1348.3061231
 30
0.0
 11
1590.59223345
 21
-1348.16103732
 31
0.0
  0
LINE
  8
ZUWAKU
  6
CONTINUOUS
 62
       7
  5
247
 10
1590.59223345
 20
-1348.16103732
 30
0.0
 11
1592.17940554
 21
-1348.11757593
 31
0.0
  0
LINE
  8
ZUWAKU
  6
CONTINUOUS
 62
       7
  5
248
 10
1592.17940554
 20
-1348.11757593
 30
0.0
 11
1593.7848277
 21
-1348.17618366
 31
0.0
  0
LINE
  8
ZUWAKU
  6
CONTINUOUS
 62
       7
  5
249
 10
1593.7848277
 20
-1348.17618366
 30
0.0
 11
1595.39604456
 21
-1348.33647988
 31
0.0
  0
LINE
  8
ZUWAKU
  6
CONTINUOUS
 62
       7
  5
24A
 10
1595.39604456
 20
-1348.33647988
 30
0.0
 11
1597.00055913
 21
-1348.59726482
 31
0.0
  0
LINE
  8
ZUWAKU
  6
CONTINUOUS
 62
       7
  5
24B
 10
1597.00055913
 20
-1348.59726482
 30
0.0
 11
1598.58593089
 21
-1348.95653097
 31
0.0
  0
LINE
  8
ZUWAKU
  6
CONTINUOUS
 62
       7
  5
24C
 10
1598.58593089
 20
-1348.95653097
 30
0.0
 11
1600.13987317
 21
-1349.41147936
 31
0.0
  0
LINE
  8
ZUWAKU
  6
CONTINUOUS
 62
       7
  5
24D
 10
1600.13987317
 20
-1349.41147936
 30
0.0
 11
1601.65034951
 21
-1349.95854095
 31
0.0
  0
LINE
  8
ZUWAKU
  6
CONTINUOUS
 62
       7
  5
24E
 10
1601.65034951
 20
-1349.95854095
 30
0.0
 11
1603.10566893
 21
-1350.59340277
 31
0.0
  0
LINE
  8
ZUWAKU
  6
CONTINUOUS
 62
       7
  5
24F
 10
1603.10566893
 20
-1350.59340277
 30
0.0
 11
1604.49457989
 21
-1351.31103928
 31
0.0
  0
LINE
  8
ZUWAKU
  6
CONTINUOUS
 62
       7
  5
250
 10
1604.49457989
 20
-1351.31103928
 30
0.0
 11
1605.806363
 21
-1352.10574889
 31
0.0
  0
LINE
  8
ZUWAKU
  6
CONTINUOUS
 62
       7
  5
251
 10
1605.806363
 20
-1352.10574889
 30
0.0
 11
1607.03092234
 21
-1352.97119644
 31
0.0
  0
LINE
  8
ZUWAKU
  6
CONTINUOUS
 62
       7
  5
252
 10
1607.03092234
 20
-1352.97119644
 30
0.0
 11
1608.15887527
 21
-1353.90046254
 31
0.0
  0
LINE
  8
ZUWAKU
  6
CONTINUOUS
 62
       7
  5
253
 10
1608.15887527
 20
-1353.90046254
 30
0.0
 11
1608.25984027
 21
-1353.9977625
 31
0.0
  0
LINE
  8
ZUWAKU
  6
CONTINUOUS
 62
       7
  5
254
 10
1585.81205007
 20
-1351.33355736
 30
0.0
 11
1586.77394744
 21
-1351.10705254
 31
0.0
  0
LINE
  8
ZUWAKU
  6
CONTINUOUS
 62
       7
  5
255
 10
1586.77394744
 20
-1351.10705254
 30
0.0
 11
1588.33236425
 21
-1350.85440727
 31
0.0
  0
LINE
  8
ZUWAKU
  6
CONTINUOUS
 62
       7
  5
256
 10
1588.33236425
 20
-1350.85440727
 30
0.0
 11
1589.93219001
 21
-1350.70529324
 31
0.0
  0
LINE
  8
ZUWAKU
  6
CONTINUOUS
 62
       7
  5
257
 10
1589.93219001
 20
-1350.70529324
 30
0.0
 11
1591.56147705
 21
-1350.66067862
 31
0.0
  0
LINE
  8
ZUWAKU
  6
CONTINUOUS
 62
       7
  5
258
 10
1591.56147705
 20
-1350.66067862
 30
0.0
 11
1593.20806103
 21
-1350.72078901
 31
0.0
  0
LINE
  8
ZUWAKU
  6
CONTINUOUS
 62
       7
  5
259
 10
1593.20806103
 20
-1350.72078901
 30
0.0
 11
1594.85964757
 21
-1350.88510151
 31
0.0
  0
LINE
  8
ZUWAKU
  6
CONTINUOUS
 62
       7
  5
25A
 10
1594.85964757
 20
-1350.88510151
 30
0.0
 11
1596.50390177
 21
-1351.15234542
 31
0.0
  0
LINE
  8
ZUWAKU
  6
CONTINUOUS
 62
       7
  5
25B
 10
1596.50390177
 20
-1351.15234542
 30
0.0
 11
1598.12853905
 21
-1351.52050965
 31
0.0
  0
LINE
  8
ZUWAKU
  6
CONTINUOUS
 62
       7
  5
25C
 10
1598.12853905
 20
-1351.52050965
 30
0.0
 11
1598.97001042
 21
-1351.76686761
 31
0.0
  0
LINE
  8
ZUWAKU
  6
CONTINUOUS
 62
       7
  5
25D
 10
1610.16074234
 20
-1356.01430592
 30
0.0
 11
1610.88179438
 21
-1356.99450639
 31
0.0
  0
LINE
  8
ZUWAKU
  6
CONTINUOUS
 62
       7
  5
25E
 10
1610.88179438
 20
-1356.99450639
 30
0.0
 11
1611.44394158
 21
-1357.929434
 31
0.0
  0
ARC
  8
ZUWAKU
  6
CONTINUOUS
 62
       7
  5
25F
 10
1608.3297992
 20
-1361.16871871
 30
0.0
 40
1.62700834
 50
114.9
 51
225.0
  0
LINE
  8
ZUWAKU
  6
CONTINUOUS
 62
       7
  5
260
 10
1607.17933057
 20
-1362.31918734
 30
0.0
 11
1612.02364919
 21
-1367.06160057
 31
0.0
  0
LINE
  8
ZUWAKU
  6
CONTINUOUS
 62
       7
  5
261
 10
1612.02364919
 20
-1367.06160057
 30
0.0
 11
1611.47518961
 21
-1368.07564064
 31
0.0
  0
LINE
  8
ZUWAKU
  6
CONTINUOUS
 62
       7
  5
262
 10
1611.47518961
 20
-1368.07564064
 30
0.0
 11
1611.14315079
 21
-1368.54927652
 31
0.0
  0
LINE
  8
ZUWAKU
  6
CONTINUOUS
 62
       7
  5
263
 10
1577.11988606
 20
-1355.48896883
 30
0.0
 11
1577.42313927
 21
-1354.92828777
 31
0.0
  0
LINE
  8
ZUWAKU
  6
CONTINUOUS
 62
       7
  5
264
 10
1606.73268359
 20
-1360.85827088
 30
0.0
 11
1606.26157503
 21
-1363.2819143
 31
0.0
  0
ARC
  8
ZUWAKU
  6
CONTINUOUS
 62
       7
  5
265
 10
1607.85869065
 20
-1363.59236213
 30
0.0
 40
1.62700834
 50
169.0
 51
225.0
  0
LINE
  8
ZUWAKU
  6
CONTINUOUS
 62
       7
  5
266
 10
1606.70822202
 20
-1364.74283076
 30
0.0
 11
1608.15167598
 21
-1366.18628472
 31
0.0
  0
ARC
  8
ZUWAKU
  6
CONTINUOUS
 62
       7
  5
267
 10
1607.73750727
 20
-1366.60045342
 30
0.0
 40
0.585723
 50
248.95117018
 51
405.0
  0
LINE
  8
ZUWAKU
  6
CONTINUOUS
 62
       7
  5
268
 10
1614.32048262
 20
-1365.22748541
 30
0.0
 11
1614.48236339
 21
-1363.99233314
 31
0.0
  0
LINE
  8
ZUWAKU
  6
CONTINUOUS
 62
       7
  5
269
 10
1614.48236339
 20
-1363.99233314
 30
0.0
 11
1614.49228998
 21
-1362.73728369
 31
0.0
  0
LINE
  8
ZUWAKU
  6
CONTINUOUS
 62
       7
  5
26A
 10
1614.49228998
 20
-1362.73728369
 30
0.0
 11
1614.35018683
 21
-1361.47188877
 31
0.0
  0
LINE
  8
ZUWAKU
  6
CONTINUOUS
 62
       7
  5
26B
 10
1614.35018683
 20
-1361.47188877
 30
0.0
 11
1614.05713544
 21
-1360.20577878
 31
0.0
  0
LINE
  8
ZUWAKU
  6
CONTINUOUS
 62
       7
  5
26C
 10
1614.05713544
 20
-1360.20577878
 30
0.0
 11
1613.6153661
 21
-1358.94858959
 31
0.0
  0
LINE
  8
ZUWAKU
  6
CONTINUOUS
 62
       7
  5
26D
 10
1613.6153661
 20
-1358.94858959
 30
0.0
 11
1613.52470827
 21
-1358.7573222
 31
0.0
  0
LINE
  8
ZUWAKU
  6
CONTINUOUS
 62
       7
  5
26E
 10
1610.62415242
 20
-1354.40177548
 30
0.0
 11
1610.44473342
 21
-1354.19786063
 31
0.0
  0
LINE
  8
ZUWAKU
  6
CONTINUOUS
 62
       7
  5
26F
 10
1610.44473342
 20
-1354.19786063
 30
0.0
 11
1609.33137249
 21
-1353.12491476
 31
0.0
  0
LINE
  8
ZUWAKU
  6
CONTINUOUS
 62
       7
  5
270
 10
1609.33137249
 20
-1353.12491476
 30
0.0
 11
1608.10525953
 21
-1352.11477935
 31
0.0
  0
LINE
  8
ZUWAKU
  6
CONTINUOUS
 62
       7
  5
271
 10
1608.10525953
 20
-1352.11477935
 30
0.0
 11
1606.775726
 21
-1351.17514212
 31
0.0
  0
LINE
  8
ZUWAKU
  6
CONTINUOUS
 62
       7
  5
272
 10
1606.775726
 20
-1351.17514212
 30
0.0
 11
1605.35289044
 21
-1350.31315428
 31
0.0
  0
LINE
  8
ZUWAKU
  6
CONTINUOUS
 62
       7
  5
273
 10
1605.35289044
 20
-1350.31315428
 30
0.0
 11
1603.8475815
 21
-1349.53537609
 31
0.0
  0
LINE
  8
ZUWAKU
  6
CONTINUOUS
 62
       7
  5
274
 10
1603.8475815
 20
-1349.53537609
 30
0.0
 11
1602.27125548
 21
-1348.84772691
 31
0.0
  0
LINE
  8
ZUWAKU
  6
CONTINUOUS
 62
       7
  5
275
 10
1602.27125548
 20
-1348.84772691
 30
0.0
 11
1600.63590918
 21
-1348.25544015
 31
0.0
  0
LINE
  8
ZUWAKU
  6
CONTINUOUS
 62
       7
  5
276
 10
1600.63590918
 20
-1348.25544015
 30
0.0
 11
1598.95398857
 21
-1347.76302348
 31
0.0
  0
LINE
  8
ZUWAKU
  6
CONTINUOUS
 62
       7
  5
277
 10
1598.95398857
 20
-1347.76302348
 30
0.0
 11
1597.23829409
 21
-1347.37422449
 31
0.0
  0
LINE
  8
ZUWAKU
  6
CONTINUOUS
 62
       7
  5
278
 10
1597.23829409
 20
-1347.37422449
 30
0.0
 11
1595.50188319
 21
-1347.09200217
 31
0.0
  0
LINE
  8
ZUWAKU
  6
CONTINUOUS
 62
       7
  5
279
 10
1595.50188319
 20
-1347.09200217
 30
0.0
 11
1593.75797103
 21
-1346.9185044
 31
0.0
  0
LINE
  8
ZUWAKU
  6
CONTINUOUS
 62
       7
  5
27A
 10
1593.75797103
 20
-1346.9185044
 30
0.0
 11
1592.01982982
 21
-1346.85505162
 31
0.0
  0
LINE
  8
ZUWAKU
  6
CONTINUOUS
 62
       7
  5
27B
 10
1592.01982982
 20
-1346.85505162
 30
0.0
 11
1590.30068787
 21
-1346.90212672
 31
0.0
  0
LINE
  8
ZUWAKU
  6
CONTINUOUS
 62
       7
  5
27C
 10
1590.30068787
 20
-1346.90212672
 30
0.0
 11
1588.61362888
 21
-1347.05937145
 31
0.0
  0
LINE
  8
ZUWAKU
  6
CONTINUOUS
 62
       7
  5
27D
 10
1588.61362888
 20
-1347.05937145
 30
0.0
 11
1586.9714924
 21
-1347.32558907
 31
0.0
  0
LINE
  8
ZUWAKU
  6
CONTINUOUS
 62
       7
  5
27E
 10
1586.9714924
 20
-1347.32558907
 30
0.0
 11
1585.38677607
 21
-1347.69875351
 31
0.0
  0
LINE
  8
ZUWAKU
  6
CONTINUOUS
 62
       7
  5
27F
 10
1585.38677607
 20
-1347.69875351
 30
0.0
 11
1583.87154054
 21
-1348.17602476
 31
0.0
  0
LINE
  8
ZUWAKU
  6
CONTINUOUS
 62
       7
  5
280
 10
1583.87154054
 20
-1348.17602476
 30
0.0
 11
1582.43731767
 21
-1348.7537705
 31
0.0
  0
LINE
  8
ZUWAKU
  6
CONTINUOUS
 62
       7
  5
281
 10
1582.43731767
 20
-1348.7537705
 30
0.0
 11
1581.09502276
 21
-1349.42759373
 31
0.0
  0
LINE
  8
ZUWAKU
  6
CONTINUOUS
 62
       7
  5
282
 10
1581.09502276
 20
-1349.42759373
 30
0.0
 11
1579.85487149
 21
-1350.19236625
 31
0.0
  0
LINE
  8
ZUWAKU
  6
CONTINUOUS
 62
       7
  5
283
 10
1579.85487149
 20
-1350.19236625
 30
0.0
 11
1578.72630216
 21
-1351.04226769
 31
0.0
  0
LINE
  8
ZUWAKU
  6
CONTINUOUS
 62
       7
  5
284
 10
1578.72630216
 20
-1351.04226769
 30
0.0
 11
1577.71790385
 21
-1351.97082978
 31
0.0
  0
LINE
  8
ZUWAKU
  6
CONTINUOUS
 62
       7
  5
285
 10
1577.71790385
 20
-1351.97082978
 30
0.0
 11
1576.83735109
 21
-1352.97098559
 31
0.0
  0
LINE
  8
ZUWAKU
  6
CONTINUOUS
 62
       7
  5
286
 10
1576.83735109
 20
-1352.97098559
 30
0.0
 11
1576.62499027
 21
-1353.27390711
 31
0.0
  0
LINE
  8
ZUWAKU
  6
CONTINUOUS
 62
       7
  5
287
 10
1575.81324412
 20
-1354.54930138
 30
0.0
 11
1575.4855644
 21
-1355.15514432
 31
0.0
  0
LINE
  8
ZUWAKU
  6
CONTINUOUS
 62
       7
  5
288
 10
1575.4855644
 20
-1355.15514432
 30
0.0
 11
1575.46669907
 21
-1355.20292217
 31
0.0
  0
LINE
  8
ZUWAKU
  6
CONTINUOUS
 62
       7
  5
289
 10
1574.9998836
 20
-1356.41793797
 30
0.0
 11
1574.71201542
 21
-1357.52837931
 31
0.0
  0
LINE
  8
ZUWAKU
  6
CONTINUOUS
 62
       7
  5
28A
 10
1574.71201542
 20
-1357.52837931
 30
0.0
 11
1574.55013465
 21
-1358.76353158
 31
0.0
  0
LINE
  8
ZUWAKU
  6
CONTINUOUS
 62
       7
  5
28B
 10
1574.55013465
 20
-1358.76353158
 30
0.0
 11
1574.54020807
 21
-1360.01858102
 31
0.0
  0
LINE
  8
ZUWAKU
  6
CONTINUOUS
 62
       7
  5
28C
 10
1574.54020807
 20
-1360.01858102
 30
0.0
 11
1574.68231122
 21
-1361.28397595
 31
0.0
  0
LINE
  8
ZUWAKU
  6
CONTINUOUS
 62
       7
  5
28D
 10
1574.68231122
 20
-1361.28397595
 30
0.0
 11
1574.97536261
 21
-1362.55008594
 31
0.0
  0
LINE
  8
ZUWAKU
  6
CONTINUOUS
 62
       7
  5
28E
 10
1574.97536261
 20
-1362.55008594
 30
0.0
 11
1575.41713194
 21
-1363.80727513
 31
0.0
  0
LINE
  8
ZUWAKU
  6
CONTINUOUS
 62
       7
  5
28F
 10
1575.41713194
 20
-1363.80727513
 30
0.0
 11
1576.00425709
 21
-1365.04597556
 31
0.0
  0
LINE
  8
ZUWAKU
  6
CONTINUOUS
 62
       7
  5
290
 10
1576.00425709
 20
-1365.04597556
 30
0.0
 11
1576.73226968
 21
-1366.25675997
 31
0.0
  0
LINE
  8
ZUWAKU
  6
CONTINUOUS
 62
       7
  5
291
 10
1576.73226968
 20
-1366.25675997
 30
0.0
 11
1577.59562908
 21
-1367.43041355
 31
0.0
  0
LINE
  8
ZUWAKU
  6
CONTINUOUS
 62
       7
  5
292
 10
1577.59562908
 20
-1367.43041355
 30
0.0
 11
1578.58776462
 21
-1368.55800409
 31
0.0
  0
LINE
  8
ZUWAKU
  6
CONTINUOUS
 62
       7
  5
293
 10
1578.58776462
 20
-1368.55800409
 30
0.0
 11
1579.70112555
 21
-1369.63094996
 31
0.0
  0
LINE
  8
ZUWAKU
  6
CONTINUOUS
 62
       7
  5
294
 10
1579.70112555
 20
-1369.63094996
 30
0.0
 11
1580.92723851
 21
-1370.64108537
 31
0.0
  0
LINE
  8
ZUWAKU
  6
CONTINUOUS
 62
       7
  5
295
 10
1580.92723851
 20
-1370.64108537
 30
0.0
 11
1582.25677205
 21
-1371.5807226
 31
0.0
  0
LINE
  8
ZUWAKU
  6
CONTINUOUS
 62
       7
  5
296
 10
1582.25677205
 20
-1371.5807226
 30
0.0
 11
1583.6796076
 21
-1372.44271043
 31
0.0
  0
LINE
  8
ZUWAKU
  6
CONTINUOUS
 62
       7
  5
297
 10
1583.6796076
 20
-1372.44271043
 30
0.0
 11
1585.18491655
 21
-1373.22048863
 31
0.0
  0
LINE
  8
ZUWAKU
  6
CONTINUOUS
 62
       7
  5
298
 10
1585.18491655
 20
-1373.22048863
 30
0.0
 11
1586.76124256
 21
-1373.90813781
 31
0.0
  0
LINE
  8
ZUWAKU
  6
CONTINUOUS
 62
       7
  5
299
 10
1586.76124256
 20
-1373.90813781
 30
0.0
 11
1588.39658886
 21
-1374.50042457
 31
0.0
  0
LINE
  8
ZUWAKU
  6
CONTINUOUS
 62
       7
  5
29A
 10
1588.39658886
 20
-1374.50042457
 30
0.0
 11
1590.07850947
 21
-1374.99284124
 31
0.0
  0
LINE
  8
ZUWAKU
  6
CONTINUOUS
 62
       7
  5
29B
 10
1590.07850947
 20
-1374.99284124
 30
0.0
 11
1591.79420396
 21
-1375.38164023
 31
0.0
  0
LINE
  8
ZUWAKU
  6
CONTINUOUS
 62
       7
  5
29C
 10
1591.79420396
 20
-1375.38164023
 30
0.0
 11
1593.53061485
 21
-1375.66386255
 31
0.0
  0
LINE
  8
ZUWAKU
  6
CONTINUOUS
 62
       7
  5
29D
 10
1593.53061485
 20
-1375.66386255
 30
0.0
 11
1595.27452701
 21
-1375.83736032
 31
0.0
  0
LINE
  8
ZUWAKU
  6
CONTINUOUS
 62
       7
  5
29E
 10
1595.27452701
 20
-1375.83736032
 30
0.0
 11
1597.01266822
 21
-1375.9008131
 31
0.0
  0
LINE
  8
ZUWAKU
  6
CONTINUOUS
 62
       7
  5
29F
 10
1597.01266822
 20
-1375.9008131
 30
0.0
 11
1598.73181017
 21
-1375.853738
 31
0.0
  0
LINE
  8
ZUWAKU
  6
CONTINUOUS
 62
       7
  5
2A0
 10
1598.73181017
 20
-1375.853738
 30
0.0
 11
1600.41886916
 21
-1375.69649327
 31
0.0
  0
LINE
  8
ZUWAKU
  6
CONTINUOUS
 62
       7
  5
2A1
 10
1600.41886916
 20
-1375.69649327
 30
0.0
 11
1602.06100564
 21
-1375.43027565
 31
0.0
  0
LINE
  8
ZUWAKU
  6
CONTINUOUS
 62
       7
  5
2A2
 10
1602.06100564
 20
-1375.43027565
 30
0.0
 11
1603.64572197
 21
-1375.05711121
 31
0.0
  0
LINE
  8
ZUWAKU
  6
CONTINUOUS
 62
       7
  5
2A3
 10
1603.64572197
 20
-1375.05711121
 30
0.0
 11
1605.1609575
 21
-1374.57983996
 31
0.0
  0
LINE
  8
ZUWAKU
  6
CONTINUOUS
 62
       7
  5
2A4
 10
1605.1609575
 20
-1374.57983996
 30
0.0
 11
1606.59518037
 21
-1374.00209422
 31
0.0
  0
LINE
  8
ZUWAKU
  6
CONTINUOUS
 62
       7
  5
2A5
 10
1606.59518037
 20
-1374.00209422
 30
0.0
 11
1607.93747528
 21
-1373.32827099
 31
0.0
  0
LINE
  8
ZUWAKU
  6
CONTINUOUS
 62
       7
  5
2A6
 10
1607.93747528
 20
-1373.32827099
 30
0.0
 11
1609.17762655
 21
-1372.56349847
 31
0.0
  0
LINE
  8
ZUWAKU
  6
CONTINUOUS
 62
       7
  5
2A7
 10
1609.17762655
 20
-1372.56349847
 30
0.0
 11
1610.30619589
 21
-1371.71359703
 31
0.0
  0
LINE
  8
ZUWAKU
  6
CONTINUOUS
 62
       7
  5
2A8
 10
1610.30619589
 20
-1371.71359703
 30
0.0
 11
1611.31459419
 21
-1370.78503494
 31
0.0
  0
LINE
  8
ZUWAKU
  6
CONTINUOUS
 62
       7
  5
2A9
 10
1611.31459419
 20
-1370.78503494
 30
0.0
 11
1611.59569446
 21
-1370.46575359
 31
0.0
  0
LINE
  8
ZUWAKU
  6
CONTINUOUS
 62
       7
  5
2AA
 10
1612.46207714
 20
-1369.40411728
 30
0.0
 11
1612.94115262
 21
-1368.72074137
 31
0.0
  0
LINE
  8
ZUWAKU
  6
CONTINUOUS
 62
       7
  5
2AB
 10
1612.94115262
 20
-1368.72074137
 30
0.0
 11
1613.32723997
 21
-1368.00690929
 31
0.0
  0
LINE
  8
ZUWAKU
  6
CONTINUOUS
 62
       7
  5
2AC
 10
1613.89083786
 20
-1366.72975737
 30
0.0
 11
1614.00787967
 21
-1366.43334026
 31
0.0
  0
LINE
  8
ZUWAKU
  6
CONTINUOUS
 62
       7
  5
2AD
 10
1614.00787967
 20
-1366.43334026
 30
0.0
 11
1614.32048262
 21
-1365.22748541
 31
0.0
  0
LINE
  8
ZUWAKU
  6
CONTINUOUS
 62
       7
  5
2AE
 10
1613.04279013
 20
-1364.97912715
 30
0.0
 11
1613.19422698
 21
-1363.82366212
 31
0.0
  0
LINE
  8
ZUWAKU
  6
CONTINUOUS
 62
       7
  5
2AF
 10
1613.19422698
 20
-1363.82366212
 30
0.0
 11
1613.20351314
 21
-1362.64958361
 31
0.0
  0
LINE
  8
ZUWAKU
  6
CONTINUOUS
 62
       7
  5
2B0
 10
1613.20351314
 20
-1362.64958361
 30
0.0
 11
1613.07057794
 21
-1361.46582707
 31
0.0
  0
LINE
  8
ZUWAKU
  6
CONTINUOUS
 62
       7
  5
2B1
 10
1613.07057794
 20
-1361.46582707
 30
0.0
 11
1612.79643309
 21
-1360.28140159
 31
0.0
  0
LINE
  8
ZUWAKU
  6
CONTINUOUS
 62
       7
  5
2B2
 10
1612.79643309
 20
-1360.28140159
 30
0.0
 11
1612.43811611
 21
-1359.26170149
 31
0.0
  0
LINE
  8
ZUWAKU
  6
CONTINUOUS
 62
       7
  5
2B3
 10
1611.89293092
 20
-1358.07103904
 30
0.0
 11
1611.83391889
 21
-1357.94653711
 31
0.0
  0
LINE
  8
ZUWAKU
  6
CONTINUOUS
 62
       7
  5
2B4
 10
1611.83391889
 20
-1357.94653711
 30
0.0
 11
1611.15287486
 21
-1356.81386782
 31
0.0
  0
LINE
  8
ZUWAKU
  6
CONTINUOUS
 62
       7
  5
2B5
 10
1611.15287486
 20
-1356.81386782
 30
0.0
 11
1610.32931463
 21
-1355.69431737
 31
0.0
  0
LINE
  8
ZUWAKU
  6
CONTINUOUS
 62
       7
  5
2B6
 10
1609.09538109
 20
-1354.35106091
 30
0.0
 11
1608.37555808
 21
-1353.65736751
 31
0.0
  0
LINE
  8
ZUWAKU
  6
CONTINUOUS
 62
       7
  5
2B7
 10
1608.37555808
 20
-1353.65736751
 30
0.0
 11
1607.22854918
 21
-1352.71240212
 31
0.0
  0
LINE
  8
ZUWAKU
  6
CONTINUOUS
 62
       7
  5
2B8
 10
1607.22854918
 20
-1352.71240212
 30
0.0
 11
1605.984792
 21
-1351.83338665
 31
0.0
  0
LINE
  8
ZUWAKU
  6
CONTINUOUS
 62
       7
  5
2B9
 10
1605.984792
 20
-1351.83338665
 30
0.0
 11
1604.65375228
 21
-1351.02701093
 31
0.0
  0
LINE
  8
ZUWAKU
  6
CONTINUOUS
 62
       7
  5
2BA
 10
1604.65375228
 20
-1351.02701093
 30
0.0
 11
1603.24556005
 21
-1350.29941198
 31
0.0
  0
LINE
  8
ZUWAKU
  6
CONTINUOUS
 62
       7
  5
2BB
 10
1603.24556005
 20
-1350.29941198
 30
0.0
 11
1601.77093248
 21
-1349.65612726
 31
0.0
  0
LINE
  8
ZUWAKU
  6
CONTINUOUS
 62
       7
  5
2BC
 10
1601.77093248
 20
-1349.65612726
 30
0.0
 11
1600.2410924
 21
-1349.10205255
 31
0.0
  0
LINE
  8
ZUWAKU
  6
CONTINUOUS
 62
       7
  5
2BD
 10
1600.2410924
 20
-1349.10205255
 30
0.0
 11
1598.66768279
 21
-1348.6414047
 31
0.0
  0
LINE
  8
ZUWAKU
  6
CONTINUOUS
 62
       7
  5
2BE
 10
1598.66768279
 20
-1348.6414047
 30
0.0
 11
1597.06267828
 21
-1348.27768951
 31
0.0
  0
LINE
  8
ZUWAKU
  6
CONTINUOUS
 62
       7
  5
2BF
 10
1597.06267828
 20
-1348.27768951
 30
0.0
 11
1595.43829389
 21
-1348.01367508
 31
0.0
  0
LINE
  8
ZUWAKU
  6
CONTINUOUS
 62
       7
  5
2C0
 10
1595.43829389
 20
-1348.01367508
 30
0.0
 11
1593.80689219
 21
-1347.85137072
 31
0.0
  0
LINE
  8
ZUWAKU
  6
CONTINUOUS
 62
       7
  5
2C1
 10
1593.80689219
 20
-1347.85137072
 30
0.0
 11
1592.18088912
 21
-1347.79201166
 31
0.0
  0
LINE
  8
ZUWAKU
  6
CONTINUOUS
 62
       7
  5
2C2
 10
1592.18088912
 20
-1347.79201166
 30
0.0
 11
1590.57265956
 21
-1347.83604967
 31
0.0
  0
LINE
  8
ZUWAKU
  6
CONTINUOUS
 62
       7
  5
2C3
 10
1590.57265956
 20
-1347.83604967
 30
0.0
 11
1588.99444309
 21
-1347.98314957
 31
0.0
  0
LINE
  8
ZUWAKU
  6
CONTINUOUS
 62
       7
  5
2C4
 10
1588.99444309
 20
-1347.98314957
 30
0.0
 11
1587.45825089
 21
-1348.23219186
 31
0.0
  0
LINE
  8
ZUWAKU
  6
CONTINUOUS
 62
       7
  5
2C5
 10
1587.45825089
 20
-1348.23219186
 30
0.0
 11
1585.97577432
 21
-1348.58128118
 31
0.0
  0
LINE
  8
ZUWAKU
  6
CONTINUOUS
 62
       7
  5
2C6
 10
1585.97577432
 20
-1348.58128118
 30
0.0
 11
1584.55829593
 21
-1349.02776073
 31
0.0
  0
LINE
  8
ZUWAKU
  6
CONTINUOUS
 62
       7
  5
2C7
 10
1584.55829593
 20
-1349.02776073
 30
0.0
 11
1583.21660357
 21
-1349.56823255
 31
0.0
  0
LINE
  8
ZUWAKU
  6
CONTINUOUS
 62
       7
  5
2C8
 10
1583.21660357
 20
-1349.56823255
 30
0.0
 11
1581.96090833
 21
-1350.19858332
 31
0.0
  0
LINE
  8
ZUWAKU
  6
CONTINUOUS
 62
       7
  5
2C9
 10
1581.96090833
 20
-1350.19858332
 30
0.0
 11
1580.80076682
 21
-1350.91401568
 31
0.0
  0
LINE
  8
ZUWAKU
  6
CONTINUOUS
 62
       7
  5
2CA
 10
1580.80076682
 20
-1350.91401568
 30
0.0
 11
1579.74500841
 21
-1351.70908476
 31
0.0
  0
LINE
  8
ZUWAKU
  6
CONTINUOUS
 62
       7
  5
2CB
 10
1579.74500841
 20
-1351.70908476
 30
0.0
 11
1578.80166805
 21
-1352.57773962
 31
0.0
  0
LINE
  8
ZUWAKU
  6
CONTINUOUS
 62
       7
  5
2CC
 10
1578.80166805
 20
-1352.57773962
 30
0.0
 11
1578.14437559
 21
-1353.32431031
 31
0.0
  0
LINE
  8
ZUWAKU
  6
CONTINUOUS
 62
       7
  5
2CD
 10
1577.23270326
 20
-1354.59638969
 30
0.0
 11
1576.7133505
 21
-1355.55661451
 31
0.0
  0
LINE
  8
ZUWAKU
  6
CONTINUOUS
 62
       7
  5
2CE
 10
1576.7133505
 20
-1355.55661451
 30
0.0
 11
1576.67054065
 21
-1355.66503366
 31
0.0
  0
LINE
  8
ZUWAKU
  6
CONTINUOUS
 62
       7
  5
2CF
 10
1576.22049447
 20
-1356.88648658
 30
0.0
 11
1575.98970791
 21
-1357.77673757
 31
0.0
  0
LINE
  8
ZUWAKU
  6
CONTINUOUS
 62
       7
  5
2D0
 10
1575.98970791
 20
-1357.77673757
 30
0.0
 11
1575.83827106
 21
-1358.9322026
 31
0.0
  0
LINE
  8
ZUWAKU
  6
CONTINUOUS
 62
       7
  5
2D1
 10
1575.83827106
 20
-1358.9322026
 30
0.0
 11
1575.8289849
 21
-1360.10628111
 31
0.0
  0
LINE
  8
ZUWAKU
  6
CONTINUOUS
 62
       7
  5
2D2
 10
1575.8289849
 20
-1360.10628111
 30
0.0
 11
1575.96192011
 21
-1361.29003765
 31
0.0
  0
LINE
  8
ZUWAKU
  6
CONTINUOUS
 62
       7
  5
2D3
 10
1575.96192011
 20
-1361.29003765
 30
0.0
 11
1576.23606496
 21
-1362.47446313
 31
0.0
  0
LINE
  8
ZUWAKU
  6
CONTINUOUS
 62
       7
  5
2D4
 10
1576.23606496
 20
-1362.47446313
 30
0.0
 11
1576.64933304
 21
-1363.65054334
 31
0.0
  0
LINE
  8
ZUWAKU
  6
CONTINUOUS
 62
       7
  5
2D5
 10
1576.64933304
 20
-1363.65054334
 30
0.0
 11
1577.19857915
 21
-1364.80932761
 31
0.0
  0
LINE
  8
ZUWAKU
  6
CONTINUOUS
 62
       7
  5
2D6
 10
1577.19857915
 20
-1364.80932761
 30
0.0
 11
1577.87962318
 21
-1365.9419969
 31
0.0
  0
LINE
  8
ZUWAKU
  6
CONTINUOUS
 62
       7
  5
2D7
 10
1577.87962318
 20
-1365.9419969
 30
0.0
 11
1578.68728198
 21
-1367.03993089
 31
0.0
  0
LINE
  8
ZUWAKU
  6
CONTINUOUS
 62
       7
  5
2D8
 10
1578.68728198
 20
-1367.03993089
 30
0.0
 11
1579.61540878
 21
-1368.09477366
 31
0.0
  0
LINE
  8
ZUWAKU
  6
CONTINUOUS
 62
       7
  5
2D9
 10
1579.61540878
 20
-1368.09477366
 30
0.0
 11
1580.65693997
 21
-1369.09849721
 31
0.0
  0
LINE
  8
ZUWAKU
  6
CONTINUOUS
 62
       7
  5
2DA
 10
1580.65693997
 20
-1369.09849721
 30
0.0
 11
1581.80394887
 21
-1370.0434626
 31
0.0
  0
LINE
  8
ZUWAKU
  6
CONTINUOUS
 62
       7
  5
2DB
 10
1581.80394887
 20
-1370.0434626
 30
0.0
 11
1583.04770604
 21
-1370.92247807
 31
0.0
  0
LINE
  8
ZUWAKU
  6
CONTINUOUS
 62
       7
  5
2DC
 10
1583.04770604
 20
-1370.92247807
 30
0.0
 11
1584.37874576
 21
-1371.72885378
 31
0.0
  0
LINE
  8
ZUWAKU
  6
CONTINUOUS
 62
       7
  5
2DD
 10
1584.37874576
 20
-1371.72885378
 30
0.0
 11
1585.786938
 21
-1372.45645274
 31
0.0
  0
LINE
  8
ZUWAKU
  6
CONTINUOUS
 62
       7
  5
2DE
 10
1585.786938
 20
-1372.45645274
 30
0.0
 11
1587.26156556
 21
-1373.09973746
 31
0.0
  0
LINE
  8
ZUWAKU
  6
CONTINUOUS
 62
       7
  5
2DF
 10
1587.26156556
 20
-1373.09973746
 30
0.0
 11
1588.79140565
 21
-1373.65381217
 31
0.0
  0
LINE
  8
ZUWAKU
  6
CONTINUOUS
 62
       7
  5
2E0
 10
1588.79140565
 20
-1373.65381217
 30
0.0
 11
1590.36481525
 21
-1374.11446002
 31
0.0
  0
LINE
  8
ZUWAKU
  6
CONTINUOUS
 62
       7
  5
2E1
 10
1590.36481525
 20
-1374.11446002
 30
0.0
 11
1591.96981977
 21
-1374.47817521
 31
0.0
  0
LINE
  8
ZUWAKU
  6
CONTINUOUS
 62
       7
  5
2E2
 10
1591.96981977
 20
-1374.47817521
 30
0.0
 11
1593.59420415
 21
-1374.74218964
 31
0.0
  0
LINE
  8
ZUWAKU
  6
CONTINUOUS
 62
       7
  5
2E3
 10
1593.59420415
 20
-1374.74218964
 30
0.0
 11
1595.22560585
 21
-1374.904494
 31
0.0
  0
LINE
  8
ZUWAKU
  6
CONTINUOUS
 62
       7
  5
2E4
 10
1595.22560585
 20
-1374.904494
 30
0.0
 11
1596.85160892
 21
-1374.96385305
 31
0.0
  0
LINE
  8
ZUWAKU
  6
CONTINUOUS
 62
       7
  5
2E5
 10
1596.85160892
 20
-1374.96385305
 30
0.0
 11
1598.45983849
 21
-1374.91981505
 31
0.0
  0
LINE
  8
ZUWAKU
  6
CONTINUOUS
 62
       7
  5
2E6
 10
1598.45983849
 20
-1374.91981505
 30
0.0
 11
1600.03805496
 21
-1374.77271515
 31
0.0
  0
LINE
  8
ZUWAKU
  6
CONTINUOUS
 62
       7
  5
2E7
 10
1600.03805496
 20
-1374.77271515
 30
0.0
 11
1601.57424715
 21
-1374.52367286
 31
0.0
  0
LINE
  8
ZUWAKU
  6
CONTINUOUS
 62
       7
  5
2E8
 10
1601.57424715
 20
-1374.52367286
 30
0.0
 11
1603.05672372
 21
-1374.17458354
 31
0.0
  0
LINE
  8
ZUWAKU
  6
CONTINUOUS
 62
       7
  5
2E9
 10
1603.05672372
 20
-1374.17458354
 30
0.0
 11
1604.47420211
 21
-1373.72810399
 31
0.0
  0
LINE
  8
ZUWAKU
  6
CONTINUOUS
 62
       7
  5
2EA
 10
1604.47420211
 20
-1373.72810399
 30
0.0
 11
1605.81589448
 21
-1373.18763217
 31
0.0
  0
LINE
  8
ZUWAKU
  6
CONTINUOUS
 62
       7
  5
2EB
 10
1605.81589448
 20
-1373.18763217
 30
0.0
 11
1607.07158971
 21
-1372.5572814
 31
0.0
  0
LINE
  8
ZUWAKU
  6
CONTINUOUS
 62
       7
  5
2EC
 10
1607.07158971
 20
-1372.5572814
 30
0.0
 11
1608.23173123
 21
-1371.84184904
 31
0.0
  0
LINE
  8
ZUWAKU
  6
CONTINUOUS
 62
       7
  5
2ED
 10
1608.23173123
 20
-1371.84184904
 30
0.0
 11
1609.28748964
 21
-1371.04677995
 31
0.0
  0
LINE
  8
ZUWAKU
  6
CONTINUOUS
 62
       7
  5
2EE
 10
1609.28748964
 20
-1371.04677995
 30
0.0
 11
1610.23082999
 21
-1370.1781251
 31
0.0
  0
LINE
  8
ZUWAKU
  6
CONTINUOUS
 62
       7
  5
2EF
 10
1610.23082999
 20
-1370.1781251
 30
0.0
 11
1610.38631807
 21
-1370.00151749
 31
0.0
  0
LINE
  8
ZUWAKU
  6
CONTINUOUS
 62
       7
  5
2F0
 10
1611.263746
 20
-1368.94412105
 30
0.0
 11
1611.75244916
 21
-1368.24701176
 31
0.0
  0
LINE
  8
ZUWAKU
  6
CONTINUOUS
 62
       7
  5
2F1
 10
1611.75244916
 20
-1368.24701176
 30
0.0
 11
1612.31914754
 21
-1367.1992502
 31
0.0
  0
LINE
  8
ZUWAKU
  6
CONTINUOUS
 62
       7
  5
2F2
 10
1612.31914754
 20
-1367.1992502
 30
0.0
 11
1612.37588615
 21
-1367.05555546
 31
0.0
  0
LINE
  8
ZUWAKU
  6
CONTINUOUS
 62
       7
  5
2F3
 10
1612.85697664
 20
-1365.69589614
 30
0.0
 11
1613.04279013
 21
-1364.97912715
 31
0.0
  0
LINE
  8
ZUWAKU
  6
CONTINUOUS
 62
       7
  5
2F4
 10
1574.09111977
 20
-1360.72261054
 30
0.0
 11
1573.929239
 21
-1361.95776281
 31
0.0
  0
LINE
  8
ZUWAKU
  6
CONTINUOUS
 62
       7
  5
2F5
 10
1573.929239
 20
-1361.95776281
 30
0.0
 11
1573.91931241
 21
-1363.21281225
 31
0.0
  0
LINE
  8
ZUWAKU
  6
CONTINUOUS
 62
       7
  5
2F6
 10
1573.91931241
 20
-1363.21281225
 30
0.0
 11
1574.06141556
 21
-1364.47820717
 31
0.0
  0
LINE
  8
ZUWAKU
  6
CONTINUOUS
 62
       7
  5
2F7
 10
1574.06141556
 20
-1364.47820717
 30
0.0
 11
1574.35446695
 21
-1365.74431717
 31
0.0
  0
LINE
  8
ZUWAKU
  6
CONTINUOUS
 62
       7
  5
2F8
 10
1574.35446695
 20
-1365.74431717
 30
0.0
 11
1574.79623629
 21
-1367.00150636
 31
0.0
  0
LINE
  8
ZUWAKU
  6
CONTINUOUS
 62
       7
  5
2F9
 10
1574.79623629
 20
-1367.00150636
 30
0.0
 11
1575.38336144
 21
-1368.24020679
 31
0.0
  0
LINE
  8
ZUWAKU
  6
CONTINUOUS
 62
       7
  5
2FA
 10
1575.38336144
 20
-1368.24020679
 30
0.0
 11
1576.11137402
 21
-1369.45099119
 31
0.0
  0
LINE
  8
ZUWAKU
  6
CONTINUOUS
 62
       7
  5
2FB
 10
1576.11137402
 20
-1369.45099119
 30
0.0
 11
1576.97473343
 21
-1370.62464477
 31
0.0
  0
LINE
  8
ZUWAKU
  6
CONTINUOUS
 62
       7
  5
2FC
 10
1576.97473343
 20
-1370.62464477
 30
0.0
 11
1577.96686897
 21
-1371.75223532
 31
0.0
  0
LINE
  8
ZUWAKU
  6
CONTINUOUS
 62
       7
  5
2FD
 10
1577.96686897
 20
-1371.75223532
 30
0.0
 11
1579.0802299
 21
-1372.82518118
 31
0.0
  0
LINE
  8
ZUWAKU
  6
CONTINUOUS
 62
       7
  5
2FE
 10
1579.0802299
 20
-1372.82518118
 30
0.0
 11
1580.30634286
 21
-1373.8353166
 31
0.0
  0
LINE
  8
ZUWAKU
  6
CONTINUOUS
 62
       7
  5
2FF
 10
1580.30634286
 20
-1373.8353166
 30
0.0
 11
1581.63587639
 21
-1374.77495383
 31
0.0
  0
LINE
  8
ZUWAKU
  6
CONTINUOUS
 62
       7
  5
300
 10
1581.63587639
 20
-1374.77495383
 30
0.0
 11
1583.05871195
 21
-1375.63694166
 31
0.0
  0
LINE
  8
ZUWAKU
  6
CONTINUOUS
 62
       7
  5
301
 10
1583.05871195
 20
-1375.63694166
 30
0.0
 11
1584.56402089
 21
-1376.41471985
 31
0.0
  0
LINE
  8
ZUWAKU
  6
CONTINUOUS
 62
       7
  5
302
 10
1584.56402089
 20
-1376.41471985
 30
0.0
 11
1586.14034691
 21
-1377.10236904
 31
0.0
  0
LINE
  8
ZUWAKU
  6
CONTINUOUS
 62
       7
  5
303
 10
1586.14034691
 20
-1377.10236904
 30
0.0
 11
1587.77569321
 21
-1377.6946558
 31
0.0
  0
LINE
  8
ZUWAKU
  6
CONTINUOUS
 62
       7
  5
304
 10
1587.77569321
 20
-1377.6946558
 30
0.0
 11
1589.45761382
 21
-1378.18707247
 31
0.0
  0
LINE
  8
ZUWAKU
  6
CONTINUOUS
 62
       7
  5
305
 10
1589.45761382
 20
-1378.18707247
 30
0.0
 11
1591.1733083
 21
-1378.57587146
 31
0.0
  0
LINE
  8
ZUWAKU
  6
CONTINUOUS
 62
       7
  5
306
 10
1591.1733083
 20
-1378.57587146
 30
0.0
 11
1592.90971919
 21
-1378.85809378
 31
0.0
  0
LINE
  8
ZUWAKU
  6
CONTINUOUS
 62
       7
  5
307
 10
1592.90971919
 20
-1378.85809378
 30
0.0
 11
1594.65363136
 21
-1379.03159154
 31
0.0
  0
LINE
  8
ZUWAKU
  6
CONTINUOUS
 62
       7
  5
308
 10
1594.65363136
 20
-1379.03159154
 30
0.0
 11
1596.39177257
 21
-1379.09504433
 31
0.0
  0
LINE
  8
ZUWAKU
  6
CONTINUOUS
 62
       7
  5
309
 10
1596.39177257
 20
-1379.09504433
 30
0.0
 11
1598.11091452
 21
-1379.04796922
 31
0.0
  0
LINE
  8
ZUWAKU
  6
CONTINUOUS
 62
       7
  5
30A
 10
1598.11091452
 20
-1379.04796922
 30
0.0
 11
1599.79797351
 21
-1378.8907245
 31
0.0
  0
LINE
  8
ZUWAKU
  6
CONTINUOUS
 62
       7
  5
30B
 10
1599.79797351
 20
-1378.8907245
 30
0.0
 11
1601.44010999
 21
-1378.62450687
 31
0.0
  0
LINE
  8
ZUWAKU
  6
CONTINUOUS
 62
       7
  5
30C
 10
1601.44010999
 20
-1378.62450687
 30
0.0
 11
1603.02482632
 21
-1378.25134244
 31
0.0
  0
LINE
  8
ZUWAKU
  6
CONTINUOUS
 62
       7
  5
30D
 10
1603.02482632
 20
-1378.25134244
 30
0.0
 11
1604.54006185
 21
-1377.77407119
 31
0.0
  0
LINE
  8
ZUWAKU
  6
CONTINUOUS
 62
       7
  5
30E
 10
1604.54006185
 20
-1377.77407119
 30
0.0
 11
1605.97428472
 21
-1377.19632545
 31
0.0
  0
LINE
  8
ZUWAKU
  6
CONTINUOUS
 62
       7
  5
30F
 10
1605.97428472
 20
-1377.19632545
 30
0.0
 11
1607.31657962
 21
-1376.52250222
 31
0.0
  0
LINE
  8
ZUWAKU
  6
CONTINUOUS
 62
       7
  5
310
 10
1607.31657962
 20
-1376.52250222
 30
0.0
 11
1608.5567309
 21
-1375.75772969
 31
0.0
  0
LINE
  8
ZUWAKU
  6
CONTINUOUS
 62
       7
  5
311
 10
1608.5567309
 20
-1375.75772969
 30
0.0
 11
1609.68530023
 21
-1374.90782825
 31
0.0
  0
LINE
  8
ZUWAKU
  6
CONTINUOUS
 62
       7
  5
312
 10
1609.68530023
 20
-1374.90782825
 30
0.0
 11
1610.68346768
 21
-1373.98868704
 31
0.0
  0
LINE
  8
ZUWAKU
  6
CONTINUOUS
 62
       7
  5
313
 10
1608.3297992
 20
-1361.16871871
 30
0.0
 11
1612.85697664
 21
-1365.69589614
 31
0.0
  0
LINE
  8
ZUWAKU
  6
CONTINUOUS
 62
       7
  5
314
 10
1613.89083786
 20
-1366.72975737
 30
0.0
 11
1620.51834027
 21
-1373.35725978
 31
0.0
  0
LINE
  8
ZUWAKU
  6
CONTINUOUS
 62
       7
  5
315
 10
1607.4094243
 20
-1362.08909361
 30
0.0
 11
1612.37588615
 21
-1367.05555546
 31
0.0
  0
LINE
  8
ZUWAKU
  6
CONTINUOUS
 62
       7
  5
316
 10
1613.32723997
 20
-1368.00690929
 30
0.0
 11
1615.26794188
 21
-1369.9476112
 31
0.0
  0
LINE
  8
ZUWAKU
  6
CONTINUOUS
 62
       7
  5
317
 10
1614.95457574
 20
-1366.87312034
 30
0.0
 11
1622.39961878
 21
-1374.31816339
 31
0.0
  0
LINE
  8
ZUWAKU
  6
CONTINUOUS
 62
       7
  5
318
 10
1564.87723904
 20
-1352.78120764
 30
0.0
 11
1564.39600173
 21
-1355.25695899
 31
0.0
  0
LINE
  8
ZUWAKU
  6
CONTINUOUS
 62
       7
  5
319
 10
1576.48973869
 20
-1352.38094682
 30
0.0
 11
1577.25197222
 21
-1351.5151812
 31
0.0
  0
LINE
  8
ZUWAKU
  6
CONTINUOUS
 62
       7
  5
31A
 10
1577.25197222
 20
-1351.5151812
 30
0.0
 11
1578.30911069
 21
-1350.54173777
 31
0.0
  0
LINE
  8
ZUWAKU
  6
CONTINUOUS
 62
       7
  5
31B
 10
1578.30911069
 20
-1350.54173777
 30
0.0
 11
1579.4875254
 21
-1349.65429885
 31
0.0
  0
LINE
  8
ZUWAKU
  6
CONTINUOUS
 62
       7
  5
31C
 10
1579.4875254
 20
-1349.65429885
 30
0.0
 11
1580.77762837
 21
-1348.85872227
 31
0.0
  0
LINE
  8
ZUWAKU
  6
CONTINUOUS
 62
       7
  5
31D
 10
1580.77762837
 20
-1348.85872227
 30
0.0
 11
1582.1692897
 21
-1348.16011742
 31
0.0
  0
LINE
  8
ZUWAKU
  6
CONTINUOUS
 62
       7
  5
31E
 10
1582.1692897
 20
-1348.16011742
 30
0.0
 11
1583.65186095
 21
-1347.56289558
 31
0.0
  0
LINE
  8
ZUWAKU
  6
CONTINUOUS
 62
       7
  5
31F
 10
1583.65186095
 20
-1347.56289558
 30
0.0
 11
1585.21419537
 21
-1347.07078905
 31
0.0
  0
LINE
  8
ZUWAKU
  6
CONTINUOUS
 62
       7
  5
320
 10
1585.21419537
 20
-1347.07078905
 30
0.0
 11
1586.84467681
 21
-1346.68684797
 31
0.0
  0
LINE
  8
ZUWAKU
  6
CONTINUOUS
 62
       7
  5
321
 10
1586.84467681
 20
-1346.68684797
 30
0.0
 11
1588.53126251
 21
-1346.41342439
 31
0.0
  0
LINE
  8
ZUWAKU
  6
CONTINUOUS
 62
       7
  5
322
 10
1588.53126251
 20
-1346.41342439
 30
0.0
 11
1590.26154008
 21
-1346.25215142
 31
0.0
  0
LINE
  8
ZUWAKU
  6
CONTINUOUS
 62
       7
  5
323
 10
1590.26154008
 20
-1346.25215142
 30
0.0
 11
1592.02279698
 21
-1346.20392308
 31
0.0
  0
LINE
  8
ZUWAKU
  6
CONTINUOUS
 62
       7
  5
324
 10
1592.02279698
 20
-1346.20392308
 30
0.0
 11
1593.80210001
 21
-1346.26887853
 31
0.0
  0
LINE
  8
ZUWAKU
  6
CONTINUOUS
 62
       7
  5
325
 10
1593.80210001
 20
-1346.26887853
 30
0.0
 11
1595.58638185
 21
-1346.44639258
 31
0.0
  0
LINE
  8
ZUWAKU
  6
CONTINUOUS
 62
       7
  5
326
 10
1595.58638185
 20
-1346.44639258
 30
0.0
 11
1597.36253238
 21
-1346.73507386
 31
0.0
  0
LINE
  8
ZUWAKU
  6
CONTINUOUS
 62
       7
  5
327
 10
1597.36253238
 20
-1346.73507386
 30
0.0
 11
1599.11749239
 21
-1347.13277094
 31
0.0
  0
LINE
  8
ZUWAKU
  6
CONTINUOUS
 62
       7
  5
328
 10
1599.11749239
 20
-1347.13277094
 30
0.0
 11
1600.83834764
 21
-1347.63658652
 31
0.0
  0
LINE
  8
ZUWAKU
  6
CONTINUOUS
 62
       7
  5
329
 10
1600.83834764
 20
-1347.63658652
 30
0.0
 11
1602.51242141
 21
-1348.24289952
 31
0.0
  0
LINE
  8
ZUWAKU
  6
CONTINUOUS
 62
       7
  5
32A
 10
1602.51242141
 20
-1348.24289952
 30
0.0
 11
1604.12736373
 21
-1348.94739451
 31
0.0
  0
LINE
  8
ZUWAKU
  6
CONTINUOUS
 62
       7
  5
32B
 10
1604.12736373
 20
-1348.94739451
 30
0.0
 11
1605.67123523
 21
-1349.74509759
 31
0.0
  0
LINE
  8
ZUWAKU
  6
CONTINUOUS
 62
       7
  5
32C
 10
1605.67123523
 20
-1349.74509759
 30
0.0
 11
1607.13258399
 21
-1350.63041764
 31
0.0
  0
LINE
  8
ZUWAKU
  6
CONTINUOUS
 62
       7
  5
32D
 10
1607.13258399
 20
-1350.63041764
 30
0.0
 11
1608.5005132
 21
-1351.59719071
 31
0.0
  0
LINE
  8
ZUWAKU
  6
CONTINUOUS
 62
       7
  5
32E
 10
1608.5005132
 20
-1351.59719071
 30
0.0
 11
1609.7647381
 21
-1352.63872471
 31
0.0
  0
LINE
  8
ZUWAKU
  6
CONTINUOUS
 62
       7
  5
32F
 10
1609.7647381
 20
-1352.63872471
 30
0.0
 11
1610.74892694
 21
-1353.58718744
 31
0.0
  0
LINE
  8
ZUWAKU
  6
CONTINUOUS
 62
       7
  5
330
 10
1574.09111977
 20
-1360.72261054
 30
0.0
 11
1574.19819143
 21
-1360.17177462
 31
0.0
  0
LINE
  8
ZUWAKU
  6
CONTINUOUS
 62
       7
  5
331
 10
1615.00446301
 20
-1361.46638568
 30
0.0
 11
1615.14338149
 21
-1362.70342193
 31
0.0
  0
LINE
  8
ZUWAKU
  6
CONTINUOUS
 62
       7
  5
332
 10
1615.14338149
 20
-1362.70342193
 30
0.0
 11
1615.13283094
 21
-1364.03736119
 31
0.0
  0
LINE
  8
ZUWAKU
  6
CONTINUOUS
 62
       7
  5
333
 10
1615.13283094
 20
-1364.03736119
 30
0.0
 11
1614.96576749
 21
-1365.31205734
 31
0.0
  0
LINE
  8
ZUWAKU
  6
CONTINUOUS
 62
       7
  5
334
 10
1614.96576749
 20
-1365.31205734
 30
0.0
 11
1614.77591694
 21
-1366.28875376
 31
0.0
  0
ARC
  8
ZUWAKU
  6
CONTINUOUS
 62
       7
  5
335
 10
1615.41476319
 20
-1366.41293289
 30
0.0
 40
0.65080334
 50
169.0
 51
225.0
  0
LINE
  8
ZUWAKU
  6
CONTINUOUS
 62
       7
  5
336
 10
1622.13576215
 20
-1377.17907448
 30
0.0
 11
1622.57827758
 21
-1374.90252997
 31
0.0
  0
ARC
  8
ZUWAKU
  6
CONTINUOUS
 62
       7
  5
337
 10
1621.93943133
 20
-1374.77835084
 30
0.0
 40
0.65080334
 50
349.0
 51
405.0
  0
ARC
  8
ZUWAKU
  6
CONTINUOUS
 62
       7
  5
338
 10
1608.3297992
 20
-1361.16871871
 30
0.0
 40
1.30160667
 50
115.0
 51
225.0
  0
ARC
  8
ZUWAKU
  6
CONTINUOUS
 62
       7
  5
339
 10
1608.3297992
 20
-1361.16871871
 30
0.0
 40
1.95241001
 50
138.08539469
 51
169.0
  0
ARC
  8
ZUWAKU
  6
CONTINUOUS
 62
       7
  5
33A
 10
1606.39264068
 20
-1359.42971423
 30
0.0
 40
0.65080334
 50
318.08539469
 51
448.1
  0
LINE
  8
ZUWAKU
  6
CONTINUOUS
 62
       7
  5
33B
 10
1576.71283941
 20
-1361.64824809
 30
0.0
 11
1576.86199241
 21
-1362.29265421
 31
0.0
  0
LINE
  8
ZUWAKU
  6
CONTINUOUS
 62
       7
  5
33C
 10
1576.86199241
 20
-1362.29265421
 30
0.0
 11
1577.25202629
 21
-1363.4026144
 31
0.0
  0
LINE
  8
ZUWAKU
  6
CONTINUOUS
 62
       7
  5
33D
 10
1577.25202629
 20
-1363.4026144
 30
0.0
 11
1577.77289415
 21
-1364.50152703
 31
0.0
  0
LINE
  8
ZUWAKU
  6
CONTINUOUS
 62
       7
  5
33E
 10
1577.77289415
 20
-1364.50152703
 30
0.0
 11
1578.42178415
 21
-1365.58071976
 31
0.0
  0
LINE
  8
ZUWAKU
  6
CONTINUOUS
 62
       7
  5
33F
 10
1578.42178415
 20
-1365.58071976
 30
0.0
 11
1579.19466794
 21
-1366.63138049
 31
0.0
  0
LINE
  8
ZUWAKU
  6
CONTINUOUS
 62
       7
  5
340
 10
1579.19466794
 20
-1366.63138049
 30
0.0
 11
1580.08630635
 21
-1367.64475316
 31
0.0
  0
LINE
  8
ZUWAKU
  6
CONTINUOUS
 62
       7
  5
341
 10
1580.08630635
 20
-1367.64475316
 30
0.0
 11
1581.09030557
 21
-1368.61230716
 31
0.0
  0
LINE
  8
ZUWAKU
  6
CONTINUOUS
 62
       7
  5
342
 10
1581.09030557
 20
-1368.61230716
 30
0.0
 11
1582.19920253
 21
-1369.52587396
 31
0.0
  0
LINE
  8
ZUWAKU
  6
CONTINUOUS
 62
       7
  5
343
 10
1582.19920253
 20
-1369.52587396
 30
0.0
 11
1583.40456404
 21
-1370.37775359
 31
0.0
  0
LINE
  8
ZUWAKU
  6
CONTINUOUS
 62
       7
  5
344
 10
1583.40456404
 20
-1370.37775359
 30
0.0
 11
1584.69709055
 21
-1371.16079709
 31
0.0
  0
LINE
  8
ZUWAKU
  6
CONTINUOUS
 62
       7
  5
345
 10
1584.69709055
 20
-1371.16079709
 30
0.0
 11
1586.06672023
 21
-1371.86847115
 31
0.0
  0
LINE
  8
ZUWAKU
  6
CONTINUOUS
 62
       7
  5
346
 10
1586.06672023
 20
-1371.86847115
 30
0.0
 11
1587.5027315
 21
-1372.49491008
 31
0.0
  0
LINE
  8
ZUWAKU
  6
CONTINUOUS
 62
       7
  5
347
 10
1587.5027315
 20
-1372.49491008
 30
0.0
 11
1588.9938441
 21
-1373.03495854
 31
0.0
  0
LINE
  8
ZUWAKU
  6
CONTINUOUS
 62
       7
  5
348
 10
1588.9938441
 20
-1373.03495854
 30
0.0
 11
1590.52831907
 21
-1373.48420748
 31
0.0
  0
LINE
  8
ZUWAKU
  6
CONTINUOUS
 62
       7
  5
349
 10
1590.52831907
 20
-1373.48420748
 30
0.0
 11
1592.09405806
 21
-1373.83902458
 31
0.0
  0
LINE
  8
ZUWAKU
  6
CONTINUOUS
 62
       7
  5
34A
 10
1592.09405806
 20
-1373.83902458
 30
0.0
 11
1593.67870281
 21
-1374.09658005
 31
0.0
  0
LINE
  8
ZUWAKU
  6
CONTINUOUS
 62
       7
  5
34B
 10
1593.67870281
 20
-1374.09658005
 30
0.0
 11
1595.26973483
 21
-1374.25486812
 31
0.0
  0
LINE
  8
ZUWAKU
  6
CONTINUOUS
 62
       7
  5
34C
 10
1595.26973483
 20
-1374.25486812
 30
0.0
 11
1596.85457608
 21
-1374.31272452
 31
0.0
  0
LINE
  8
ZUWAKU
  6
CONTINUOUS
 62
       7
  5
34D
 10
1596.85457608
 20
-1374.31272452
 30
0.0
 11
1598.42069069
 21
-1374.26983975
 31
0.0
  0
LINE
  8
ZUWAKU
  6
CONTINUOUS
 62
       7
  5
34E
 10
1598.42069069
 20
-1374.26983975
 30
0.0
 11
1599.95568859
 21
-1374.12676809
 31
0.0
  0
LINE
  8
ZUWAKU
  6
CONTINUOUS
 62
       7
  5
34F
 10
1599.95568859
 20
-1374.12676809
 30
0.0
 11
1601.44743156
 21
-1373.88493176
 31
0.0
  0
LINE
  8
ZUWAKU
  6
CONTINUOUS
 62
       7
  5
350
 10
1601.44743156
 20
-1373.88493176
 30
0.0
 11
1602.88414301
 21
-1373.54661908
 31
0.0
  0
LINE
  8
ZUWAKU
  6
CONTINUOUS
 62
       7
  5
351
 10
1602.88414301
 20
-1373.54661908
 30
0.0
 11
1604.25452252
 21
-1373.11497481
 31
0.0
  0
LINE
  8
ZUWAKU
  6
CONTINUOUS
 62
       7
  5
352
 10
1605.23875095
 20
-1372.71849962
 30
0.0
 11
1604.25452252
 21
-1373.11497481
 31
0.0
  0
LINE
  8
ZUWAKU
  6
CONTINUOUS
 62
       7
  5
353
 10
1606.47812829
 20
-1364.97292448
 30
0.0
 11
1607.94450701
 21
-1366.4393032
 31
0.0
  0
LINE
  8
ZUWAKU
  6
CONTINUOUS
 62
       7
  5
354
 10
1606.41326047
 20
-1360.79618132
 30
0.0
 11
1605.94215191
 21
-1363.21982474
 31
0.0
  0
ARC
  8
ZUWAKU
  6
CONTINUOUS
 62
       7
  5
355
 10
1607.85869065
 20
-1363.59236213
 30
0.0
 40
1.95241001
 50
169.0
 51
225.0
  0
LINE
  8
ZUWAKU
  6
CONTINUOUS
 62
       7
  5
356
 10
1567.42737431
 20
-1352.96879076
 30
0.0
 11
1576.62499027
 21
-1353.27390711
 31
0.0
  0
LINE
  8
ZUWAKU
  6
CONTINUOUS
 62
       7
  5
357
 10
1578.14437559
 20
-1353.32431031
 30
0.0
 11
1609.09538109
 21
-1354.35106091
 31
0.0
  0
LINE
  8
ZUWAKU
  6
CONTINUOUS
 62
       7
  5
358
 10
1610.62415242
 20
-1354.40177548
 30
0.0
 11
1620.99649752
 21
-1354.7458616
 31
0.0
  0
LINE
  8
ZUWAKU
  6
CONTINUOUS
 62
       7
  5
359
 10
1621.09747112
 20
-1355.24216272
 30
0.0
 11
1613.52470827
 21
-1358.7573222
 31
0.0
  0
LINE
  8
ZUWAKU
  6
CONTINUOUS
 62
       7
  5
35A
 10
1612.43811611
 20
-1359.26170149
 30
0.0
 11
1608.3297992
 21
-1361.16871871
 31
0.0
  0
ARC
  8
ZUWAKU
  6
CONTINUOUS
 62
       7
  5
35B
 10
1620.98786652
 20
-1355.00603982
 30
0.0
 40
0.26032133
 50
294.9
 51
448.1
  0
LINE
  8
ZUWAKU
  6
CONTINUOUS
 62
       7
  5
35C
 10
1620.24097447
 20
-1373.78436566
 30
0.0
 11
1611.59569446
 21
-1370.46575359
 31
0.0
  0
LINE
  8
ZUWAKU
  6
CONTINUOUS
 62
       7
  5
35D
 10
1610.38631807
 20
-1370.00151749
 30
0.0
 11
1576.22049447
 21
-1356.88648658
 31
0.0
  0
LINE
  8
ZUWAKU
  6
CONTINUOUS
 62
       7
  5
35E
 10
1574.9998836
 20
-1356.41793797
 30
0.0
 11
1567.32545249
 21
-1353.47199988
 31
0.0
  0
ARC
  8
ZUWAKU
  6
CONTINUOUS
 62
       7
  5
35F
 10
1567.41874331
 20
-1353.22896897
 30
0.0
 40
0.26032133
 50
90.0
 51
249.0
  0
ARC
  8
ZUWAKU
  6
CONTINUOUS
 62
       7
  5
360
 10
1620.33426529
 20
-1373.54133476
 30
0.0
 40
0.26032133
 50
249.0
 51
405.0
  0
LINE
  8
ZUWAKU
  6
CONTINUOUS
 62
       7
  5
361
 10
1611.17895292
 20
-1353.76901877
 30
0.0
 11
1622.76892537
 21
-1354.15349776
 31
0.0
  0
ARC
  8
ZUWAKU
  6
CONTINUOUS
 62
       7
  5
362
 10
1611.20053042
 20
-1353.11857324
 30
0.0
 40
0.65080334
 50
226.05902282
 51
268.1
  0
LINE
  8
ZUWAKU
  6
CONTINUOUS
 62
       7
  5
363
 10
1565.53766279
 20
-1352.25494124
 30
0.0
 11
1575.97969501
 21
-1352.60133913
 31
0.0
  0
ARC
  8
ZUWAKU
  6
CONTINUOUS
 62
       7
  5
364
 10
1565.51608529
 20
-1352.90538677
 30
0.0
 40
0.65080334
 50
88.1
 51
169.0
  0
ARC
  8
ZUWAKU
  6
CONTINUOUS
 62
       7
  5
365
 10
1576.00127251
 20
-1351.95089359
 30
0.0
 40
0.65080334
 50
268.1
 51
318.6388066
  0
LINE
  8
ZUWAKU
  6
CONTINUOUS
 62
       7
  5
366
 10
1623.38619411
 20
-1354.92812242
 30
0.0
 11
1622.98859857
 21
-1356.97357415
 31
0.0
  0
ARC
  8
ZUWAKU
  6
CONTINUOUS
 62
       7
  5
367
 10
1622.74734787
 20
-1354.80394329
 30
0.0
 40
0.65080334
 50
349.0
 51
448.1
  0
LINE
  8
ZUWAKU
  6
CONTINUOUS
 62
       7
  5
368
 10
1622.62376384
 20
-1357.43970229
 30
0.0
 11
1615.37718955
 21
-1360.80345009
 31
0.0
  0
ARC
  8
ZUWAKU
  6
CONTINUOUS
 62
       7
  5
369
 10
1622.34975233
 20
-1356.84939502
 30
0.0
 40
0.65080334
 50
294.9
 51
349.0
  0
ARC
  8
ZUWAKU
  6
CONTINUOUS
 62
       7
  5
36A
 10
1615.65120106
 20
-1361.39375735
 30
0.0
 40
0.65080334
 50
114.9
 51
186.40743915
  0
LINE
  8
ZUWAKU
  6
CONTINUOUS
 62
       7
  5
36B
 10
1614.99057608
 20
-1370.37471708
 30
0.0
 11
1612.46207714
 21
-1369.40411728
 31
0.0
  0
ARC
  8
ZUWAKU
  6
CONTINUOUS
 62
       7
  5
36C
 10
1615.0838669
 20
-1370.13168618
 30
0.0
 40
0.26032133
 50
249.0
 51
405.0
  0
LINE
  8
ZUWAKU
  6
CONTINUOUS
 62
       7
  5
36D
 10
1611.263746
 20
-1368.94412105
 30
0.0
 11
1576.67054065
 21
-1355.66503366
 31
0.0
  0
LINE
  8
ZUWAKU
  6
CONTINUOUS
 62
       7
  5
36E
 10
1575.46669907
 20
-1355.20292217
 30
0.0
 11
1573.57010749
 21
-1354.47488887
 31
0.0
  0
LINE
  8
ZUWAKU
  6
CONTINUOUS
 62
       7
  5
36F
 10
1607.66714121
 20
-1366.86640909
 30
0.0
 11
1588.33642414
 21
-1359.44604203
 31
0.0
  0
ARC
  8
ZUWAKU
  6
CONTINUOUS
 62
       7
  5
370
 10
1607.76043203
 20
-1366.62337818
 30
0.0
 40
0.26032133
 50
249.0
 51
405.0
  0
LINE
  8
ZUWAKU
  6
CONTINUOUS
 62
       7
  5
371
 10
1564.80162092
 20
-1355.98871538
 30
0.0
 11
1573.79257224
 21
-1359.44001823
 31
0.0
  0
ARC
  8
ZUWAKU
  6
CONTINUOUS
 62
       7
  5
372
 10
1573.55934518
 20
-1360.04759549
 30
0.0
 40
0.65080334
 50
349.0
 51
429.0
  0
LINE
  8
ZUWAKU
  6
CONTINUOUS
 62
       7
  5
373
 10
1577.58010767
 20
-1360.89391687
 30
0.0
 11
1605.22880452
 21
-1371.5072572
 31
0.0
  0
ARC
  8
ZUWAKU
  6
CONTINUOUS
 62
       7
  5
374
 10
1604.99557746
 20
-1372.11483446
 30
0.0
 40
0.65080334
 50
291.94097718
 51
429.0
  0
LINE
  8
ZUWAKU
  6
CONTINUOUS
 62
       7
  5
375
 10
1611.35754021
 20
-1373.85985841
 30
0.0
 11
1621.26368885
 21
-1377.6624726
 31
0.0
  0
ARC
  8
ZUWAKU
  6
CONTINUOUS
 62
       7
  5
376
 10
1621.4969159
 20
-1377.05489535
 30
0.0
 40
0.65080334
 50
249.0
 51
349.0
  0
ARC
  8
ZUWAKU
  6
CONTINUOUS
 62
       7
  5
377
 10
1611.12431315
 20
-1374.46743567
 30
0.0
 40
0.65080334
 50
69.0
 51
132.63976032
  0
ARC
  8
ZUWAKU
  6
CONTINUOUS
 62
       7
  5
378
 10
1577.34688062
 20
-1361.50149412
 30
0.0
 40
0.65080334
 50
69.0
 51
193.03208385
  0
ARC
  8
ZUWAKU
  6
CONTINUOUS
 62
       7
  5
379
 10
1565.03484797
 20
-1355.38113812
 30
0.0
 40
0.65080334
 50
169.0
 51
249.0
  0
LINE
  8
ZUWAKU
  6
CONTINUOUS
 62
       7
  5
37A
 10
1577.23270326
 20
-1354.59638969
 30
0.0
 11
1610.32931463
 21
-1355.69431737
 31
0.0
  0
LINE
  8
ZUWAKU
  6
CONTINUOUS
 62
       7
  5
37B
 10
1573.57010749
 20
-1354.47488887
 30
0.0
 11
1575.81324412
 21
-1354.54930138
 31
0.0
  0
LINE
  8
ZUWAKU
  6
CONTINUOUS
 62
       7
  5
37C
 10
1611.89009308
 20
-1358.08108695
 30
0.0
 11
1607.78177618
 21
-1359.98810417
 31
0.0
  0
LINE
  8
ZUWAKU
  6
CONTINUOUS
 62
       7
  5
37D
 10
1588.5912287
 20
-1358.18801924
 30
0.0
 11
1606.41421818
 21
-1358.7792687
 31
0.0
  0
ARC
  8
ZUWAKU
  6
CONTINUOUS
 62
       7
  5
37E
 10
1588.5696512
 20
-1358.83846478
 30
0.0
 40
0.65080334
 50
88.1
 51
249.0
  0
LINE
  8
ZUWAKU
  6
CONTINUOUS
 62
       7
  5
37F
 10
1576.42946528
 20
-1352.94184021
 30
0.0
 11
1565.52687404
 21
-1352.58016401
 31
0.0
  0
ARC
  8
ZUWAKU
  6
CONTINUOUS
 62
       7
  5
380
 10
1565.51608529
 20
-1352.90538677
 30
0.0
 40
0.32540167
 50
88.1
 51
169.0
  0
LINE
  8
ZUWAKU
  6
CONTINUOUS
 62
       7
  5
381
 10
1565.19666216
 20
-1352.84329721
 30
0.0
 11
1564.71542485
 21
-1355.31904856
 31
0.0
  0
ARC
  8
ZUWAKU
  6
CONTINUOUS
 62
       7
  5
382
 10
1565.03484797
 20
-1355.38113812
 30
0.0
 40
0.32540167
 50
169.0
 51
249.0
  0
LINE
  8
ZUWAKU
  6
CONTINUOUS
 62
       7
  5
383
 10
1564.91823444
 20
-1355.68492675
 30
0.0
 11
1573.90918577
 21
-1359.1362296
 31
0.0
  0
ARC
  8
ZUWAKU
  6
CONTINUOUS
 62
       7
  5
384
 10
1573.55934518
 20
-1360.04759549
 30
0.0
 40
0.976205
 50
47.38928591
 51
69.0
  0
ARC
  8
ZUWAKU
  6
CONTINUOUS
 62
       7
  5
385
 10
1567.41874331
 20
-1353.22896897
 30
0.0
 40
0.585723
 50
88.1
 51
249.0
  0
LINE
  8
ZUWAKU
  6
CONTINUOUS
 62
       7
  5
386
 10
1574.61196974
 20
-1356.61758416
 30
0.0
 11
1567.20883896
 21
-1353.7757885
 31
0.0
  0
LINE
  8
ZUWAKU
  6
CONTINUOUS
 62
       7
  5
387
 10
1598.87858032
 20
-1352.07916039
 30
0.0
 11
1598.04678714
 21
-1351.83563592
 31
0.0
  0
LINE
  8
ZUWAKU
  6
CONTINUOUS
 62
       7
  5
388
 10
1598.04678714
 20
-1351.83563592
 30
0.0
 11
1596.44178262
 21
-1351.47192074
 31
0.0
  0
LINE
  8
ZUWAKU
  6
CONTINUOUS
 62
       7
  5
389
 10
1596.44178262
 20
-1351.47192074
 30
0.0
 11
1594.81739824
 21
-1351.20790631
 31
0.0
  0
LINE
  8
ZUWAKU
  6
CONTINUOUS
 62
       7
  5
38A
 10
1594.81739824
 20
-1351.20790631
 30
0.0
 11
1593.18599654
 21
-1351.04560195
 31
0.0
  0
LINE
  8
ZUWAKU
  6
CONTINUOUS
 62
       7
  5
38B
 10
1593.18599654
 20
-1351.04560195
 30
0.0
 11
1591.55999347
 21
-1350.98624289
 31
0.0
  0
LINE
  8
ZUWAKU
  6
CONTINUOUS
 62
       7
  5
38C
 10
1591.55999347
 20
-1350.98624289
 30
0.0
 11
1589.9517639
 21
-1351.03028089
 31
0.0
  0
LINE
  8
ZUWAKU
  6
CONTINUOUS
 62
       7
  5
38D
 10
1589.9517639
 20
-1351.03028089
 30
0.0
 11
1588.37354743
 21
-1351.1773808
 31
0.0
  0
LINE
  8
ZUWAKU
  6
CONTINUOUS
 62
       7
  5
38E
 10
1588.37354743
 20
-1351.1773808
 30
0.0
 11
1586.83735524
 21
-1351.42642309
 31
0.0
  0
LINE
  8
ZUWAKU
  6
CONTINUOUS
 62
       7
  5
38F
 10
1586.83735524
 20
-1351.42642309
 30
0.0
 11
1585.88663477
 21
-1351.65029601
 31
0.0
  0
LINE
  8
ZUWAKU
  6
CONTINUOUS
 62
       7
  5
390
 10
1586.01422668
 20
-1352.93421882
 30
0.0
 11
1598.67414261
 21
-1353.35419149
 31
0.0
  0
ARC
  8
ZUWAKU
  6
CONTINUOUS
 62
       7
  5
391
 10
1586.03580418
 20
-1352.28377329
 30
0.0
 40
0.65080334
 50
103.25045477
 51
268.1
  0
ARC
  8
ZUWAKU
  6
CONTINUOUS
 62
       7
  5
392
 10
1598.69572011
 20
-1352.70374596
 30
0.0
 40
0.65080334
 50
268.1
 51
433.68152816
  0
LINE
  8
ZUWAKU
  6
CONTINUOUS
 62
       7
  5
393
 10
1578.84413043
 20
-1353.0219429
 30
0.0
 11
1608.25984027
 21
-1353.9977625
 31
0.0
  0
ARC
  8
ZUWAKU
  6
CONTINUOUS
 62
       7
  5
394
 10
1586.03580418
 20
-1352.28377329
 30
0.0
 40
0.976205
 50
103.25045477
 51
268.1
  0
ARC
  8
ZUWAKU
  6
CONTINUOUS
 62
       7
  5
395
 10
1598.69572011
 20
-1352.70374596
 30
0.0
 40
0.976205
 50
268.1
 51
433.68152816
  0
ARC
  8
ZUWAKU
  6
CONTINUOUS
 62
       7
  5
396
 10
1611.20053042
 20
-1353.11857324
 30
0.0
 40
0.976205
 50
226.05902282
 51
268.1
  0
LINE
  8
ZUWAKU
  6
CONTINUOUS
 62
       7
  5
397
 10
1610.79323984
 20
-1354.08180402
 30
0.0
 11
1622.75813662
 21
-1354.47872052
 31
0.0
  0
ARC
  8
ZUWAKU
  6
CONTINUOUS
 62
       7
  5
398
 10
1622.74734787
 20
-1354.80394329
 30
0.0
 40
0.32540167
 50
349.0
 51
448.1
  0
LINE
  8
ZUWAKU
  6
CONTINUOUS
 62
       7
  5
399
 10
1623.06677099
 20
-1354.86603286
 30
0.0
 11
1622.66917545
 21
-1356.91148459
 31
0.0
  0
ARC
  8
ZUWAKU
  6
CONTINUOUS
 62
       7
  5
39A
 10
1622.34975233
 20
-1356.84939502
 30
0.0
 40
0.32540167
 50
294.9
 51
349.0
  0
LINE
  8
ZUWAKU
  6
CONTINUOUS
 62
       7
  5
39B
 10
1622.48675808
 20
-1357.14454866
 30
0.0
 11
1615.24018379
 21
-1360.50829645
 31
0.0
  0
ARC
  8
ZUWAKU
  6
CONTINUOUS
 62
       7
  5
39C
 10
1615.65120106
 20
-1361.39375735
 30
0.0
 40
0.976205
 50
114.9
 51
186.40743915
  0
LINE
  8
ZUWAKU
  6
CONTINUOUS
 62
       7
  5
39D
 10
1613.94978965
 20
-1358.91875559
 30
0.0
 11
1621.23447688
 21
-1355.53731636
 31
0.0
  0
ARC
  8
ZUWAKU
  6
CONTINUOUS
 62
       7
  5
39E
 10
1620.98786652
 20
-1355.00603982
 30
0.0
 40
0.585723
 50
294.9
 51
448.1
  0
LINE
  8
ZUWAKU
  6
CONTINUOUS
 62
       7
  5
39F
 10
1612.24996187
 20
-1359.70778937
 30
0.0
 11
1608.88911192
 21
-1361.26784398
 31
0.0
  0
LINE
  8
ZUWAKU
  6
CONTINUOUS
 62
       7
  5
3A0
 10
1611.44394158
 20
-1357.929434
 30
0.0
 11
1607.64477042
 21
-1359.69295053
 31
0.0
  0
LINE
  8
ZUWAKU
  6
CONTINUOUS
 62
       7
  5
3A1
 10
1577.42313927
 20
-1354.92828777
 30
0.0
 11
1610.16074234
 21
-1356.01430592
 31
0.0
  0
LINE
  8
ZUWAKU
  6
CONTINUOUS
 62
       7
  5
3A2
 10
1588.60201745
 20
-1357.86279648
 30
0.0
 11
1606.42500693
 21
-1358.45404593
 31
0.0
  0
LINE
  8
ZUWAKU
  6
CONTINUOUS
 62
       7
  5
3A3
 10
1611.14315079
 20
-1368.54927652
 30
0.0
 11
1577.11988606
 21
-1355.48896883
 31
0.0
  0
LINE
  8
ZUWAKU
  6
CONTINUOUS
 62
       7
  5
3A4
 10
1609.8057457
 20
-1370.12720901
 30
0.0
 11
1576.44404834
 21
-1357.32085324
 31
0.0
  0
LINE
  8
ZUWAKU
  6
CONTINUOUS
 62
       7
  5
3A5
 10
1577.6967212
 20
-1360.59012824
 30
0.0
 11
1605.34541804
 21
-1371.20346857
 31
0.0
  0
LINE
  8
ZUWAKU
  6
CONTINUOUS
 62
       7
  5
3A6
 10
1620.12436094
 20
-1374.08815429
 30
0.0
 11
1611.69037214
 21
-1370.85064932
 31
0.0
  0
LINE
  8
ZUWAKU
  6
CONTINUOUS
 62
       7
  5
3A7
 10
1611.47415374
 20
-1373.55606979
 30
0.0
 11
1621.38030238
 21
-1377.35868397
 31
0.0
  0
ARC
  8
ZUWAKU
  6
CONTINUOUS
 62
       7
  5
3A8
 10
1577.34688062
 20
-1361.50149412
 30
0.0
 40
0.976205
 50
69.0
 51
193.03208385
  0
ARC
  8
ZUWAKU
  6
CONTINUOUS
 62
       7
  5
3A9
 10
1588.5696512
 20
-1358.83846478
 30
0.0
 40
0.976205
 50
88.1
 51
249.0
  0
ARC
  8
ZUWAKU
  6
CONTINUOUS
 62
       7
  5
3AA
 10
1604.99557746
 20
-1372.11483446
 30
0.0
 40
0.976205
 50
291.94097718
 51
429.0
  0
ARC
  8
ZUWAKU
  6
CONTINUOUS
 62
       7
  5
3AB
 10
1606.39264068
 20
-1359.42971423
 30
0.0
 40
0.976205
 50
318.08539469
 51
448.1
  0
ARC
  8
ZUWAKU
  6
CONTINUOUS
 62
       7
  5
3AC
 10
1611.12431315
 20
-1374.46743567
 30
0.0
 40
0.976205
 50
69.0
 51
132.63976032
  0
LINE
  8
ZUWAKU
  6
CONTINUOUS
 62
       7
  5
3AD
 10
1622.2707017
 20
-1374.7794916
 30
0.0
 11
1621.81633903
 21
-1377.11698491
 31
0.0
  0
ARC
  8
ZUWAKU
  6
CONTINUOUS
 62
       7
  5
3AE
 10
1621.4969159
 20
-1377.05489535
 30
0.0
 40
0.32540167
 50
249.0
 51
349.0
  0
LINE
  8
ZUWAKU
  6
CONTINUOUS
 62
       7
  5
3AF
 10
1612.96774686
 20
-1369.24967333
 30
0.0
 11
1614.82134698
 21
-1369.96120375
 31
0.0
  0
LINE
  8
ZUWAKU
  6
CONTINUOUS
 62
       7
  5
3B0
 10
1571.53475877
 20
-1325.80157239
 30
0.0
 11
1572.05434349
 21
-1323.12854072
 31
0.0
  0
LINE
  8
ZUWAKU
  6
CONTINUOUS
 62
       7
  5
3B1
 10
1574.29338725
 20
-1323.12854072
 30
0.0
 11
1572.05434349
 21
-1323.12854072
 31
0.0
  0
LINE
  8
ZUWAKU
  6
CONTINUOUS
 62
       7
  5
3B2
 10
1574.29338725
 20
-1323.12854072
 30
0.0
 11
1573.81296263
 21
-1325.60011113
 31
0.0
  0
ARC
  8
ZUWAKU
  6
CONTINUOUS
 62
       7
  5
3B3
 10
1574.3311768
 20
-1325.70084176
 30
0.0
 40
0.52791342
 50
169.0
 51
270.0
  0
LINE
  8
ZUWAKU
  6
CONTINUOUS
 62
       7
  5
3B4
 10
1574.3311768
 20
-1326.22875518
 30
0.0
 11
1579.4778336
 21
-1326.22875518
 31
0.0
  0
LINE
  8
ZUWAKU
  6
CONTINUOUS
 62
       7
  5
3B5
 10
1579.4778336
 20
-1326.22875518
 30
0.0
 11
1579.04027019
 21
-1328.47982376
 31
0.0
  0
LINE
  8
ZUWAKU
  6
CONTINUOUS
 62
       7
  5
3B6
 10
1573.68838145
 20
-1328.47982376
 30
0.0
 11
1579.04027019
 21
-1328.47982376
 31
0.0
  0
ARC
  8
ZUWAKU
  6
CONTINUOUS
 62
       7
  5
3B7
 10
1573.68838145
 20
-1329.00773718
 30
0.0
 40
0.52791342
 50
90.0
 51
169.0
  0
LINE
  8
ZUWAKU
  6
CONTINUOUS
 62
       7
  5
3B8
 10
1573.17016728
 20
-1328.90700655
 30
0.0
 11
1571.44534127
 21
-1337.78046714
 31
0.0
  0
LINE
  8
ZUWAKU
  6
CONTINUOUS
 62
       7
  5
3B9
 10
1569.20629751
 20
-1337.78046714
 30
0.0
 11
1571.44534127
 21
-1337.78046714
 31
0.0
  0
LINE
  8
ZUWAKU
  6
CONTINUOUS
 62
       7
  5
3BA
 10
1569.20629751
 20
-1337.78046714
 30
0.0
 11
1570.89196342
 21
-1329.10846781
 31
0.0
  0
ARC
  8
ZUWAKU
  6
CONTINUOUS
 62
       7
  5
3BB
 10
1570.37374925
 20
-1329.00773718
 30
0.0
 40
0.52791342
 50
349.0
 51
450.0
  0
LINE
  8
ZUWAKU
  6
CONTINUOUS
 62
       7
  5
3BC
 10
1570.37374925
 20
-1328.47982376
 30
0.0
 11
1565.22709245
 21
-1328.47982376
 31
0.0
  0
LINE
  8
ZUWAKU
  6
CONTINUOUS
 62
       7
  5
3BD
 10
1565.22709245
 20
-1328.47982376
 30
0.0
 11
1565.66465586
 21
-1326.22875518
 31
0.0
  0
LINE
  8
ZUWAKU
  6
CONTINUOUS
 62
       7
  5
3BE
 10
1565.66465586
 20
-1326.22875518
 30
0.0
 11
1571.01654461
 21
-1326.22875518
 31
0.0
  0
ARC
  8
ZUWAKU
  6
CONTINUOUS
 62
       7
  5
3BF
 10
1571.01654461
 20
-1325.70084176
 30
0.0
 40
0.52791342
 50
270.0
 51
349.0
  0
LINE
  8
ZUWAKU
  6
CONTINUOUS
 62
       7
  5
3C0
 10
1566.64094092
 20
-1330.77573639
 30
0.0
 11
1566.3997557
 21
-1332.01652681
 31
0.0
  0
ARC
  8
ZUWAKU
  6
CONTINUOUS
 62
       7
  5
3C1
 10
1563.24405405
 20
-1331.40312055
 30
0.0
 40
3.21476595
 50
285.60484579
 51
349.0
  0
ARC
  8
ZUWAKU
  6
CONTINUOUS
 62
       7
  5
3C2
 10
1564.13361314
 20
-1334.58812321
 30
0.0
 40
0.09212947
 50
105.60484579
 51
169.0
  0
LINE
  8
ZUWAKU
  6
CONTINUOUS
 62
       7
  5
3C3
 10
1563.42533642
 20
-1337.74905498
 30
0.0
 11
1564.04317635
 21
-1334.57054408
 31
0.0
  0
ARC
  8
ZUWAKU
  6
CONTINUOUS
 62
       7
  5
3C4
 10
1562.10334539
 20
-1331.59693089
 30
0.0
 40
6.29255839
 50
282.12750956
 51
349.0
  0
LINE
  8
ZUWAKU
  6
CONTINUOUS
 62
       7
  5
3C5
 10
1568.28029176
 20
-1332.79760763
 30
0.0
 11
1568.67330372
 21
-1330.77573639
 31
0.0
  0
LINE
  8
ZUWAKU
  6
CONTINUOUS
 62
       7
  5
3C6
 10
1568.67330372
 20
-1330.77573639
 30
0.0
 11
1566.64094092
 21
-1330.77573639
 31
0.0
  0
LINE
  8
ZUWAKU
  6
CONTINUOUS
 62
       7
  5
3C7
 10
1575.11486044
 20
-1330.77573639
 30
0.0
 11
1574.43670389
 21
-1334.26454941
 31
0.0
  0
ARC
  8
ZUWAKU
  6
CONTINUOUS
 62
       7
  5
3C8
 10
1577.16462817
 20
-1334.79480417
 30
0.0
 40
2.778982
 50
169.0
 51
270.0
  0
LINE
  8
ZUWAKU
  6
CONTINUOUS
 62
       7
  5
3C9
 10
1577.16462817
 20
-1337.57378617
 30
0.0
 11
1577.27258297
 21
-1337.57378617
 31
0.0
  0
LINE
  8
ZUWAKU
  6
CONTINUOUS
 62
       7
  5
3CA
 10
1577.27258297
 20
-1337.57378617
 30
0.0
 11
1577.87084521
 21
-1334.49599374
 31
0.0
  0
LINE
  8
ZUWAKU
  6
CONTINUOUS
 62
       7
  5
3CB
 10
1577.87084521
 20
-1334.49599374
 30
0.0
 11
1577.60997987
 21
-1334.49599374
 31
0.0
  0
ARC
  8
ZUWAKU
  6
CONTINUOUS
 62
       7
  5
3CC
 10
1577.60997987
 20
-1333.34803742
 30
0.0
 40
1.14795631
 50
169.0
 51
270.0
  0
LINE
  8
ZUWAKU
  6
CONTINUOUS
 62
       7
  5
3CD
 10
1576.48311474
 20
-1333.12899703
 30
0.0
 11
1576.94054228
 21
-1330.77573639
 31
0.0
  0
LINE
  8
ZUWAKU
  6
CONTINUOUS
 62
       7
  5
3CE
 10
1576.94054228
 20
-1330.77573639
 30
0.0
 11
1575.11486044
 21
-1330.77573639
 31
0.0
  0
LINE
  8
ZUWAKU
  6
CONTINUOUS
 62
       7
  5
3CF
 10
1586.23498059
 20
-1323.54190265
 30
0.0
 11
1586.03651277
 21
-1324.56293107
 31
0.0
  0
ARC
  8
ZUWAKU
  6
CONTINUOUS
 62
       7
  5
3D0
 10
1581.2577419
 20
-1323.63403212
 30
0.0
 40
4.86821367
 50
271.01523011
 51
349.0
  0
LINE
  8
ZUWAKU
  6
CONTINUOUS
 62
       7
  5
3D1
 10
1580.74890583
 20
-1331.56296431
 30
0.0
 11
1581.34399779
 21
-1328.50148157
 31
0.0
  0
ARC
  8
ZUWAKU
  6
CONTINUOUS
 62
       7
  5
3D2
 10
1580.22828381
 20
-1323.63403212
 30
0.0
 40
7.9460061
 50
273.75670841
 51
341.51398532
  0
ARC
  8
ZUWAKU
  6
CONTINUOUS
 62
       7
  5
3D3
 10
1588.26495822
 20
-1326.32088465
 30
0.0
 40
0.52791342
 50
90.0
 51
161.51398532
  0
LINE
  8
ZUWAKU
  6
CONTINUOUS
 62
       7
  5
3D4
 10
1588.26495822
 20
-1325.79297122
 30
0.0
 11
1591.97747881
 21
-1325.79297122
 31
0.0
  0
ARC
  8
ZUWAKU
  6
CONTINUOUS
 62
       7
  5
3D5
 10
1591.97747881
 20
-1326.32088465
 30
0.0
 40
0.52791342
 50
346.25869332
 51
450.0
  0
ARC
  8
ZUWAKU
  6
CONTINUOUS
 62
       7
  5
3D6
 10
1582.13997584
 20
-1323.91524492
 30
0.0
 40
10.65528066
 50
277.26716646
 51
346.25869332
  0
LINE
  8
ZUWAKU
  6
CONTINUOUS
 62
       7
  5
3D7
 10
1582.88804106
 20
-1337.57056972
 30
0.0
 11
1583.48782813
 21
-1334.48493271
 31
0.0
  0
ARC
  8
ZUWAKU
  6
CONTINUOUS
 62
       7
  5
3D8
 10
1582.60929958
 20
-1325.49416079
 30
0.0
 40
12.07962538
 50
271.32223704
 51
349.0
  0
LINE
  8
ZUWAKU
  6
CONTINUOUS
 62
       7
  5
3D9
 10
1594.46698822
 20
-1327.79906197
 30
0.0
 11
1595.29449616
 21
-1323.54190265
 31
0.0
  0
LINE
  8
ZUWAKU
  6
CONTINUOUS
 62
       7
  5
3DA
 10
1586.23498059
 20
-1323.54190265
 30
0.0
 11
1595.29449616
 21
-1323.54190265
 31
0.0
  0
LINE
  8
ZUWAKU
  6
CONTINUOUS
 62
       7
  5
3DB
 10
1610.38220653
 20
-1323.54190265
 30
0.0
 11
1597.60243361
 21
-1323.54190265
 31
0.0
  0
LINE
  8
ZUWAKU
  6
CONTINUOUS
 62
       7
  5
3DC
 10
1597.16487021
 20
-1325.79297122
 30
0.0
 11
1601.69148411
 21
-1325.79297122
 31
0.0
  0
LINE
  8
ZUWAKU
  6
CONTINUOUS
 62
       7
  5
3DD
 10
1605.00611631
 20
-1325.79297122
 30
0.0
 11
1609.94464313
 21
-1325.79297122
 31
0.0
  0
LINE
  8
ZUWAKU
  6
CONTINUOUS
 62
       7
  5
3DE
 10
1600.04432102
 20
-1335.32271759
 30
0.0
 11
1595.1057942
 21
-1335.32271759
 31
0.0
  0
LINE
  8
ZUWAKU
  6
CONTINUOUS
 62
       7
  5
3DF
 10
1608.09224808
 20
-1335.32271759
 30
0.0
 11
1603.35895321
 21
-1335.32271759
 31
0.0
  0
LINE
  8
ZUWAKU
  6
CONTINUOUS
 62
       7
  5
3E0
 10
1594.66823079
 20
-1337.57378617
 30
0.0
 11
1607.65468468
 21
-1337.57378617
 31
0.0
  0
LINE
  8
ZUWAKU
  6
CONTINUOUS
 62
       7
  5
3E1
 10
1597.60243361
 20
-1323.54190265
 30
0.0
 11
1597.16487021
 21
-1325.79297122
 31
0.0
  0
ARC
  8
ZUWAKU
  6
CONTINUOUS
 62
       7
  5
3E2
 10
1601.69148411
 20
-1326.32088465
 30
0.0
 40
0.52791342
 50
349.0
 51
450.0
  0
LINE
  8
ZUWAKU
  6
CONTINUOUS
 62
       7
  5
3E3
 10
1602.20969828
 20
-1326.42161528
 30
0.0
 11
1600.56253518
 21
-1334.8955348
 31
0.0
  0
ARC
  8
ZUWAKU
  6
CONTINUOUS
 62
       7
  5
3E4
 10
1600.04432102
 20
-1334.79480417
 30
0.0
 40
0.52791342
 50
270.0
 51
349.0
  0
LINE
  8
ZUWAKU
  6
CONTINUOUS
 62
       7
  5
3E5
 10
1595.1057942
 20
-1335.32271759
 30
0.0
 11
1594.66823079
 21
-1337.57378617
 31
0.0
  0
LINE
  8
ZUWAKU
  6
CONTINUOUS
 62
       7
  5
3E6
 10
1607.65468468
 20
-1337.57378617
 30
0.0
 11
1608.09224808
 21
-1335.32271759
 31
0.0
  0
ARC
  8
ZUWAKU
  6
CONTINUOUS
 62
       7
  5
3E7
 10
1603.35895321
 20
-1334.79480417
 30
0.0
 40
0.52791342
 50
169.0
 51
270.0
  0
LINE
  8
ZUWAKU
  6
CONTINUOUS
 62
       7
  5
3E8
 10
1602.84073904
 20
-1334.69407354
 30
0.0
 11
1604.48790214
 21
-1326.22015402
 31
0.0
  0
ARC
  8
ZUWAKU
  6
CONTINUOUS
 62
       7
  5
3E9
 10
1605.00611631
 20
-1326.32088465
 30
0.0
 40
0.52791342
 50
90.0
 51
169.0
  0
LINE
  8
ZUWAKU
  6
CONTINUOUS
 62
       7
  5
3EA
 10
1609.94464313
 20
-1325.79297122
 30
0.0
 11
1610.38220653
 21
-1323.54190265
 31
0.0
  0
LINE
  8
ZUWAKU
  6
CONTINUOUS
 62
       7
  5
3EB
 10
1623.43943281
 20
-1323.12854072
 30
0.0
 11
1621.73372053
 21
-1323.12854072
 31
0.0
  0
ARC
  8
ZUWAKU
  6
CONTINUOUS
 62
       7
  5
3EC
 10
1621.73372053
 20
-1323.22067019
 30
0.0
 40
0.09212947
 50
90.0
 51
151.06147226
  0
ARC
  8
ZUWAKU
  6
CONTINUOUS
 62
       7
  5
3ED
 10
1610.51949254
 20
-1317.02024127
 30
0.0
 40
12.7220903
 50
270.0
 51
331.06147226
  0
LINE
  8
ZUWAKU
  6
CONTINUOUS
 62
       7
  5
3EE
 10
1610.51949254
 20
-1329.74233157
 30
0.0
 11
1609.90740066
 21
-1329.74233157
 31
0.0
  0
LINE
  8
ZUWAKU
  6
CONTINUOUS
 62
       7
  5
3EF
 10
1609.15609144
 20
-1333.21677577
 30
0.0
 11
1609.81696386
 21
-1329.8168819
 31
0.0
  0
ARC
  8
ZUWAKU
  6
CONTINUOUS
 62
       7
  5
3F0
 10
1609.90740066
 20
-1329.83446104
 30
0.0
 40
0.09212947
 50
90.0
 51
169.0
  0
ARC
  8
ZUWAKU
  6
CONTINUOUS
 62
       7
  5
3F1
 10
1607.0363971
 20
-1315.06003374
 30
0.0
 40
18.2800543
 50
276.65880775
 51
292.91876618
  0
ARC
  8
ZUWAKU
  6
CONTINUOUS
 62
       7
  5
3F2
 10
1614.36070209
 20
-1332.3832611
 30
0.0
 40
0.52791342
 50
349.0
 51
472.91876618
  0
LINE
  8
ZUWAKU
  6
CONTINUOUS
 62
       7
  5
3F3
 10
1614.87891626
 20
-1332.48399173
 30
0.0
 11
1613.84938573
 21
-1337.78046714
 31
0.0
  0
LINE
  8
ZUWAKU
  6
CONTINUOUS
 62
       7
  5
3F4
 10
1613.84938573
 20
-1337.78046714
 30
0.0
 11
1616.08842949
 21
-1337.78046714
 31
0.0
  0
LINE
  8
ZUWAKU
  6
CONTINUOUS
 62
       7
  5
3F5
 10
1616.08842949
 20
-1337.78046714
 30
0.0
 11
1617.5501655
 21
-1330.2604873
 31
0.0
  0
ARC
  8
ZUWAKU
  6
CONTINUOUS
 62
       7
  5
3F6
 10
1618.27126332
 20
-1330.40065451
 30
0.0
 40
0.73459439
 50
126.21757797
 51
169.0
  0
ARC
  8
ZUWAKU
  6
CONTINUOUS
 62
       7
  5
3F7
 10
1607.0363971
 20
-1315.06003374
 30
0.0
 40
18.2800543
 50
306.21757797
 51
333.80783849
  0
LINE
  8
ZUWAKU
  6
CONTINUOUS
 62
       7
  5
3F8
 10
1774.52453866
 20
-1331.04912008
 30
0.0
 11
1776.84836605
 21
-1319.09406456
 31
0.0
  0
LINE
  8
ZUWAKU
  6
CONTINUOUS
 62
       7
  5
3F9
 10
1786.8624234
 20
-1319.09406456
 30
0.0
 11
1776.84836605
 21
-1319.09406456
 31
0.0
  0
LINE
  8
ZUWAKU
  6
CONTINUOUS
 62
       7
  5
3FA
 10
1786.8624234
 20
-1319.09406456
 30
0.0
 11
1784.71373842
 21
-1330.14809052
 31
0.0
  0
ARC
  8
ZUWAKU
  6
CONTINUOUS
 62
       7
  5
3FB
 10
1787.03143604
 20
-1330.5986053
 30
0.0
 40
2.36107726
 50
169.0
 51
270.0
  0
LINE
  8
ZUWAKU
  6
CONTINUOUS
 62
       7
  5
3FC
 10
1787.03143604
 20
-1332.95968255
 30
0.0
 11
1810.04970721
 21
-1332.95968255
 31
0.0
  0
LINE
  8
ZUWAKU
  6
CONTINUOUS
 62
       7
  5
3FD
 10
1810.04970721
 20
-1332.95968255
 30
0.0
 11
1808.09271774
 21
-1343.02752056
 31
0.0
  0
LINE
  8
ZUWAKU
  6
CONTINUOUS
 62
       7
  5
3FE
 10
1784.15655272
 20
-1343.02752056
 30
0.0
 11
1808.09271774
 21
-1343.02752056
 31
0.0
  0
ARC
  8
ZUWAKU
  6
CONTINUOUS
 62
       7
  5
3FF
 10
1784.15655272
 20
-1345.38859782
 30
0.0
 40
2.36107726
 50
90.0
 51
169.0
  0
LINE
  8
ZUWAKU
  6
CONTINUOUS
 62
       7
  5
400
 10
1781.8388551
 20
-1344.93808304
 30
0.0
 11
1774.12462149
 21
-1384.62437453
 31
0.0
  0
LINE
  8
ZUWAKU
  6
CONTINUOUS
 62
       7
  5
401
 10
1764.11056414
 20
-1384.62437453
 30
0.0
 11
1774.12462149
 21
-1384.62437453
 31
0.0
  0
LINE
  8
ZUWAKU
  6
CONTINUOUS
 62
       7
  5
402
 10
1764.11056414
 20
-1384.62437453
 30
0.0
 11
1771.64965534
 21
-1345.8391126
 31
0.0
  0
ARC
  8
ZUWAKU
  6
CONTINUOUS
 62
       7
  5
403
 10
1769.33195773
 20
-1345.38859782
 30
0.0
 40
2.36107726
 50
349.0
 51
450.0
  0
LINE
  8
ZUWAKU
  6
CONTINUOUS
 62
       7
  5
404
 10
1769.33195773
 20
-1343.02752056
 30
0.0
 11
1746.31368656
 21
-1343.02752056
 31
0.0
  0
LINE
  8
ZUWAKU
  6
CONTINUOUS
 62
       7
  5
405
 10
1746.31368656
 20
-1343.02752056
 30
0.0
 11
1748.27067602
 21
-1332.95968255
 31
0.0
  0
LINE
  8
ZUWAKU
  6
CONTINUOUS
 62
       7
  5
406
 10
1748.27067602
 20
-1332.95968255
 30
0.0
 11
1772.20684104
 21
-1332.95968255
 31
0.0
  0
ARC
  8
ZUWAKU
  6
CONTINUOUS
 62
       7
  5
407
 10
1772.20684104
 20
-1330.5986053
 30
0.0
 40
2.36107726
 50
270.0
 51
349.0
  0
LINE
  8
ZUWAKU
  6
CONTINUOUS
 62
       7
  5
408
 10
1752.63708225
 20
-1353.29592227
 30
0.0
 11
1751.55838842
 21
-1358.84532094
 31
0.0
  0
ARC
  8
ZUWAKU
  6
CONTINUOUS
 62
       7
  5
409
 10
1737.44460561
 20
-1356.10187947
 30
0.0
 40
14.37794618
 50
285.60484579
 51
349.0
  0
ARC
  8
ZUWAKU
  6
CONTINUOUS
 62
       7
  5
40A
 10
1741.42313252
 20
-1370.3467102
 30
0.0
 40
0.41204634
 50
105.60484579
 51
169.0
  0
LINE
  8
ZUWAKU
  6
CONTINUOUS
 62
       7
  5
40B
 10
1738.2553857
 20
-1384.48388458
 30
0.0
 11
1741.01865663
 21
-1370.26808805
 31
0.0
  0
ARC
  8
ZUWAKU
  6
CONTINUOUS
 62
       7
  5
40C
 10
1732.34281969
 20
-1356.96869054
 30
0.0
 40
28.14328232
 50
282.12750956
 51
349.0
  0
LINE
  8
ZUWAKU
  6
CONTINUOUS
 62
       7
  5
40D
 10
1759.96903065
 20
-1362.33868197
 30
0.0
 11
1761.72676508
 21
-1353.29592227
 31
0.0
  0
LINE
  8
ZUWAKU
  6
CONTINUOUS
 62
       7
  5
40E
 10
1761.72676508
 20
-1353.29592227
 30
0.0
 11
1752.63708225
 21
-1353.29592227
 31
0.0
  0
LINE
  8
ZUWAKU
  6
CONTINUOUS
 62
       7
  5
40F
 10
1790.53643809
 20
-1353.29592227
 30
0.0
 11
1787.50340285
 21
-1368.8995359
 31
0.0
  0
ARC
  8
ZUWAKU
  6
CONTINUOUS
 62
       7
  5
410
 10
1799.70396394
 20
-1371.27108473
 30
0.0
 40
12.42891527
 50
169.0
 51
270.0
  0
LINE
  8
ZUWAKU
  6
CONTINUOUS
 62
       7
  5
411
 10
1799.70396394
 20
-1383.7
 30
0.0
 11
1800.18678862
 21
-1383.7
 31
0.0
  0
LINE
  8
ZUWAKU
  6
CONTINUOUS
 62
       7
  5
412
 10
1800.18678862
 20
-1383.7
 30
0.0
 11
1802.86249891
 21
-1369.93466386
 31
0.0
  0
LINE
  8
ZUWAKU
  6
CONTINUOUS
 62
       7
  5
413
 10
1802.86249891
 20
-1369.93466386
 30
0.0
 11
1801.69578632
 21
-1369.93466386
 31
0.0
  0
ARC
  8
ZUWAKU
  6
CONTINUOUS
 62
       7
  5
414
 10
1801.69578632
 20
-1364.80046301
 30
0.0
 40
5.13420085
 50
169.0
 51
270.0
  0
LINE
  8
ZUWAKU
  6
CONTINUOUS
 62
       7
  5
415
 10
1796.6559152
 20
-1363.8208113
 30
0.0
 11
1798.70174638
 21
-1353.29592227
 31
0.0
  0
LINE
  8
ZUWAKU
  6
CONTINUOUS
 62
       7
  5
416
 10
1798.70174638
 20
-1353.29592227
 30
0.0
 11
1790.53643809
 21
-1353.29592227
 31
0.0
  0
LINE
  8
ZUWAKU
  6
CONTINUOUS
 62
       7
  5
417
 10
1840.27084839
 20
-1320.94281363
 30
0.0
 11
1839.38320689
 21
-1325.50933325
 31
0.0
  0
ARC
  8
ZUWAKU
  6
CONTINUOUS
 62
       7
  5
418
 10
1818.01029473
 20
-1321.35485997
 30
0.0
 40
21.77294244
 50
271.01523011
 51
349.0
  0
LINE
  8
ZUWAKU
  6
CONTINUOUS
 62
       7
  5
419
 10
1815.73454037
 20
-1356.81677599
 30
0.0
 11
1818.39607166
 21
-1343.12438451
 31
0.0
  0
ARC
  8
ZUWAKU
  6
CONTINUOUS
 62
       7
  5
41A
 10
1813.40607371
 20
-1321.35485997
 30
0.0
 40
35.53827858
 50
273.75670841
 51
341.51398532
  0
ARC
  8
ZUWAKU
  6
CONTINUOUS
 62
       7
  5
41B
 10
1849.34986364
 20
-1333.3717289
 30
0.0
 40
2.36107726
 50
90.0
 51
161.51398532
  0
LINE
  8
ZUWAKU
  6
CONTINUOUS
 62
       7
  5
41C
 10
1849.34986364
 20
-1331.01065164
 30
0.0
 11
1865.95400275
 21
-1331.01065164
 31
0.0
  0
ARC
  8
ZUWAKU
  6
CONTINUOUS
 62
       7
  5
41D
 10
1865.95400275
 20
-1333.3717289
 30
0.0
 40
2.36107726
 50
346.25869332
 51
450.0
  0
ARC
  8
ZUWAKU
  6
CONTINUOUS
 62
       7
  5
41E
 10
1821.95606007
 20
-1322.61257595
 30
0.0
 40
47.65542936
 50
277.26716646
 51
346.25869332
  0
LINE
  8
ZUWAKU
  6
CONTINUOUS
 62
       7
  5
41F
 10
1825.30175976
 20
-1383.6856145
 30
0.0
 11
1827.98428981
 21
-1369.88519375
 31
0.0
  0
ARC
  8
ZUWAKU
  6
CONTINUOUS
 62
       7
  5
420
 10
1824.05509668
 20
-1329.67423077
 30
0.0
 40
54.02576923
 50
271.32223704
 51
349.0
  0
LINE
  8
ZUWAKU
  6
CONTINUOUS
 62
       7
  5
421
 10
1877.08826037
 20
-1339.98283352
 30
0.0
 11
1880.78926532
 21
-1320.94281363
 31
0.0
  0
LINE
  8
ZUWAKU
  6
CONTINUOUS
 62
       7
  5
422
 10
1840.27084839
 20
-1320.94281363
 30
0.0
 11
1880.78926532
 21
-1320.94281363
 31
0.0
  0
LINE
  8
ZUWAKU
  6
CONTINUOUS
 62
       7
  5
423
 10
1948.2686062
 20
-1320.94281363
 30
0.0
 11
1891.11144768
 21
-1320.94281363
 31
0.0
  0
LINE
  8
ZUWAKU
  6
CONTINUOUS
 62
       7
  5
424
 10
1889.15445822
 20
-1331.01065164
 30
0.0
 11
1909.39960579
 21
-1331.01065164
 31
0.0
  0
LINE
  8
ZUWAKU
  6
CONTINUOUS
 62
       7
  5
425
 10
1924.22420078
 20
-1331.01065164
 30
0.0
 11
1946.31161674
 21
-1331.01065164
 31
0.0
  0
LINE
  8
ZUWAKU
  6
CONTINUOUS
 62
       7
  5
426
 10
1902.03271728
 20
-1373.63216199
 30
0.0
 11
1879.94530133
 21
-1373.63216199
 31
0.0
  0
LINE
  8
ZUWAKU
  6
CONTINUOUS
 62
       7
  5
427
 10
1938.02683438
 20
-1373.63216199
 30
0.0
 11
1916.85731228
 21
-1373.63216199
 31
0.0
  0
LINE
  8
ZUWAKU
  6
CONTINUOUS
 62
       7
  5
428
 10
1877.98831186
 20
-1383.7
 30
0.0
 11
1936.06984491
 21
-1383.7
 31
0.0
  0
LINE
  8
ZUWAKU
  6
CONTINUOUS
 62
       7
  5
429
 10
1891.11144768
 20
-1320.94281363
 30
0.0
 11
1889.15445822
 21
-1331.01065164
 31
0.0
  0
ARC
  8
ZUWAKU
  6
CONTINUOUS
 62
       7
  5
42A
 10
1909.39960579
 20
-1333.3717289
 30
0.0
 40
2.36107726
 50
349.0
 51
450.0
  0
LINE
  8
ZUWAKU
  6
CONTINUOUS
 62
       7
  5
42B
 10
1911.7173034
 20
-1333.82224368
 30
0.0
 11
1904.3504149
 21
-1371.72159951
 31
0.0
  0
ARC
  8
ZUWAKU
  6
CONTINUOUS
 62
       7
  5
42C
 10
1902.03271728
 20
-1371.27108473
 30
0.0
 40
2.36107726
 50
270.0
 51
349.0
  0
LINE
  8
ZUWAKU
  6
CONTINUOUS
 62
       7
  5
42D
 10
1879.94530133
 20
-1373.63216199
 30
0.0
 11
1877.98831186
 21
-1383.7
 31
0.0
  0
LINE
  8
ZUWAKU
  6
CONTINUOUS
 62
       7
  5
42E
 10
1936.06984491
 20
-1383.7
 30
0.0
 11
1938.02683438
 21
-1373.63216199
 31
0.0
  0
ARC
  8
ZUWAKU
  6
CONTINUOUS
 62
       7
  5
42F
 10
1916.85731228
 20
-1371.27108473
 30
0.0
 40
2.36107726
 50
169.0
 51
270.0
  0
LINE
  8
ZUWAKU
  6
CONTINUOUS
 62
       7
  5
430
 10
1914.53961466
 20
-1370.82056995
 30
0.0
 11
1921.90650316
 21
-1332.92121412
 31
0.0
  0
ARC
  8
ZUWAKU
  6
CONTINUOUS
 62
       7
  5
431
 10
1924.22420078
 20
-1333.3717289
 30
0.0
 40
2.36107726
 50
90.0
 51
169.0
  0
LINE
  8
ZUWAKU
  6
CONTINUOUS
 62
       7
  5
432
 10
1946.31161674
 20
-1331.01065164
 30
0.0
 11
1948.2686062
 21
-1320.94281363
 31
0.0
  0
LINE
  8
ZUWAKU
  6
CONTINUOUS
 62
       7
  5
433
 10
2006.66666667
 20
-1319.09406456
 30
0.0
 11
1999.03791868
 21
-1319.09406456
 31
0.0
  0
ARC
  8
ZUWAKU
  6
CONTINUOUS
 62
       7
  5
434
 10
1999.03791868
 20
-1319.50611091
 30
0.0
 40
0.41204634
 50
90.0
 51
151.06147226
  0
ARC
  8
ZUWAKU
  6
CONTINUOUS
 62
       7
  5
435
 10
1948.88261381
 20
-1291.77487493
 30
0.0
 40
56.89917468
 50
270.0
 51
331.06147226
  0
LINE
  8
ZUWAKU
  6
CONTINUOUS
 62
       7
  5
436
 10
1948.88261381
 20
-1348.67404961
 30
0.0
 11
1946.14505087
 21
-1348.67404961
 31
0.0
  0
LINE
  8
ZUWAKU
  6
CONTINUOUS
 62
       7
  5
437
 10
1942.78484252
 20
-1364.21339911
 30
0.0
 11
1945.74057498
 21
-1349.0074738
 31
0.0
  0
ARC
  8
ZUWAKU
  6
CONTINUOUS
 62
       7
  5
438
 10
1946.14505087
 20
-1349.08609595
 30
0.0
 40
0.41204634
 50
90.0
 51
169.0
  0
ARC
  8
ZUWAKU
  6
CONTINUOUS
 62
       7
  5
439
 10
1933.30457192
 20
-1283.0079044
 30
0.0
 40
81.75700521
 50
276.65880775
 51
292.91876618
  0
ARC
  8
ZUWAKU
  6
CONTINUOUS
 62
       7
  5
43A
 10
1966.06231057
 20
-1360.48552927
 30
0.0
 40
2.36107726
 50
349.0
 51
472.91876618
  0
LINE
  8
ZUWAKU
  6
CONTINUOUS
 62
       7
  5
43B
 10
1968.38000819
 20
-1360.93604405
 30
0.0
 11
1963.77546319
 21
-1384.62437453
 31
0.0
  0
LINE
  8
ZUWAKU
  6
CONTINUOUS
 62
       7
  5
43C
 10
1963.77546319
 20
-1384.62437453
 30
0.0
 11
1973.78952055
 21
-1384.62437453
 31
0.0
  0
LINE
  8
ZUWAKU
  6
CONTINUOUS
 62
       7
  5
43D
 10
1973.78952055
 20
-1384.62437453
 30
0.0
 11
1980.32709184
 21
-1350.99148588
 31
0.0
  0
ARC
  8
ZUWAKU
  6
CONTINUOUS
 62
       7
  5
43E
 10
1983.55218063
 20
-1351.61837963
 30
0.0
 40
3.28545179
 50
126.21757797
 51
169.0
  0
ARC
  8
ZUWAKU
  6
CONTINUOUS
 62
       7
  5
43F
 10
1933.30457192
 20
-1283.0079044
 30
0.0
 40
81.75700521
 50
306.21757797
 51
333.80783849
  0
LINE
  8
ZUWAKU
  6
CONTINUOUS
 62
       7
  5
440
 10
-1890.0
 20
-1405.0
 30
0.0
 11
-1890.0
 21
1399.16666667
 31
0.0
  0
LINE
  8
ZUWAKU
  6
CONTINUOUS
 62
       7
  5
441
 10
-1890.0
 20
1399.16666667
 30
0.0
 11
2021.66666667
 21
1399.16666667
 31
0.0
  0
LINE
  8
ZUWAKU
  6
CONTINUOUS
 62
       7
  5
442
 10
2021.66666667
 20
1399.16666667
 30
0.0
 11
2021.66666667
 21
-1405.0
 31
0.0
  0
LINE
  8
ZUWAKU
  6
CONTINUOUS
 62
       7
  5
443
 10
2021.66666667
 20
-1405.0
 30
0.0
 11
-1890.0
 21
-1405.0
 31
0.0
  0
LINE
  8
ZUWAKU
  6
CONTINUOUS
 62
       7
  5
444
 10
1031.66666667
 20
-1017.5
 30
0.0
 11
2021.66666667
 21
-1017.5
 31
0.0
  0
LINE
  8
ZUWAKU
  6
CONTINUOUS
 62
       7
  5
445
 10
1031.66666667
 20
-1067.5
 30
0.0
 11
1031.66666667
 21
-917.5
 31
0.0
  0
LINE
  8
ZUWAKU
  6
CONTINUOUS
 62
       7
  5
446
 10
1031.66666667
 20
-967.5
 30
0.0
 11
2021.66666667
 21
-967.5
 31
0.0
  0
LINE
  8
ZUWAKU
  6
CONTINUOUS
 62
       7
  5
447
 10
1031.66666667
 20
-917.5
 30
0.0
 11
2021.66666667
 21
-917.5
 31
0.0
  0
LINE
  8
ZUWAKU
  6
CONTINUOUS
 62
       7
  5
448
 10
1753.54166667
 20
-1225.0
 30
0.0
 11
1753.54166667
 21
-1300.0
 31
0.0
  0
LINE
  8
ZUWAKU
  6
CONTINUOUS
 62
       7
  5
449
 10
1806.04166667
 20
-1225.0
 30
0.0
 11
1806.04166667
 21
-1300.0
 31
0.0
  0
TEXT
  8
ZUWAKU
 62
       7
  5
44A
 10
1045.91666667
 20
-1157.5
 30
0.0
 40
30.0
  1
図
 41
0.8
 72
       5
 11
1069.91666667
 21
-1157.5
 31
0.0
  0
TEXT
  8
ZUWAKU
 62
       7
  5
44B
 10
1045.91666667
 20
-1202.5
 30
0.0
 40
30.0
  1
名
 41
0.8
 72
       5
 11
1069.91666667
 21
-1202.5
 31
0.0
  0
TEXT
  8
ZUWAKU
 62
       7
  5
44C
 10
1045.91666667
 20
-1262.5
 30
0.0
 40
30.0
  1
尺
 41
0.8
 72
       5
 11
1069.91666667
 21
-1262.5
 31
0.0
  0
TEXT
  8
ZUWAKU
 62
       7
  5
44D
 10
1045.91666667
 20
-1292.5
 30
0.0
 40
30.0
  1
度
 41
0.8
 72
       5
 11
1069.91666667
 21
-1292.5
 31
0.0
  0
TEXT
  8
ZUWAKU
 62
       7
  5
44E
 10
1643.41666667
 20
-1157.5
 30
0.0
 40
30.0
  1
図
 41
0.8
 72
       5
 11
1667.41666667
 21
-1157.5
 31
0.0
  0
TEXT
  8
ZUWAKU
 62
       7
  5
44F
 10
1643.41666667
 20
-1202.5
 30
0.0
 40
30.0
  1
番
 41
0.8
 72
       5
 11
1667.41666667
 21
-1202.5
 31
0.0
  0
TEXT
  8
ZUWAKU
 62
       7
  5
450
 10
1767.79166667
 20
-1262.5
 30
0.0
 40
30.0
  1
日
 41
0.8
 72
       5
 11
1791.79166667
 21
-1262.5
 31
0.0
  0
TEXT
  8
ZUWAKU
 62
       7
  5
451
 10
1767.79166667
 20
-1292.5
 30
0.0
 40
30.0
  1
付
 41
0.8
 72
       5
 11
1791.79166667
 21
-1292.5
 31
0.0
  0
TEXT
  8
ZUWAKU
 62
       7
  5
452
 10
1821.84904498
 20
-1277.5
 30
0.0
 40
30.0
  1
2005.4.1
 41
0.7
 72
       5
 11
1989.84904498
 21
-1277.5
 31
0.0
  0
TEXT
  8
ZUWAKU
 62
       7
  5
453
 10
1691.66666667
 20
-1185.0
 30
0.0
 40
40.0
  1
HT-JF-SN02
 41
0.75
 72
       5
 11
2009.66666667
 21
-1185.0
 31
0.0
  0
TEXT
  8
ZUWAKU
 62
       7
  5
454
 10
1109.66666667
 20
-1277.5
 30
0.0
 40
30.0
  1
1/10
 41
0.8
 72
       5
 11
1205.66666667
 21
-1277.5
 31
0.0
  0
TEXT
  8
ZUWAKU
 62
       7
  5
455
 10
1045.91666667
 20
-1101.25
 30
0.0
 40
30.0
  1
番
 41
0.8
 72
       5
 11
1069.91666667
 21
-1101.25
 31
0.0
  0
TEXT
  8
ZUWAKU
 62
       7
  5
456
 10
1093.41666667
 20
-1101.25
 30
0.0
 40
30.0
  1
号
 41
0.8
 72
       5
 11
1117.41666667
 21
-1101.25
 31
0.0
  0
TEXT
  8
ZUWAKU
 62
       7
  5
457
 10
1172.16666667
 20
-1101.25
 30
0.0
 40
30.0
  1
品
 41
0.8
 72
       5
 11
1196.16666667
 21
-1101.25
 31
0.0
  0
TEXT
  8
ZUWAKU
 62
       7
  5
458
 10
1367.16666667
 20
-1101.25
 30
0.0
 40
30.0
  1
名
 41
0.8
 72
       5
 11
1391.16666667
 21
-1101.25
 31
0.0
  0
TEXT
  8
ZUWAKU
 62
       7
  5
459
 10
1457.16666667
 20
-1101.25
 30
0.0
 40
30.0
  1
材
 41
0.8
 72
       5
 11
1481.16666667
 21
-1101.25
 31
0.0
  0
TEXT
  8
ZUWAKU
 62
       7
  5
45A
 10
1532.16666667
 20
-1101.25
 30
0.0
 40
30.0
  1
質
 41
0.8
 72
       5
 11
1556.16666667
 21
-1101.25
 31
0.0
  0
TEXT
  8
ZUWAKU
 62
       7
  5
45B
 10
1595.91666667
 20
-1101.25
 30
0.0
 40
30.0
  1
個
 41
0.8
 72
       5
 11
1619.91666667
 21
-1101.25
 31
0.0
  0
TEXT
  8
ZUWAKU
 62
       7
  5
45C
 10
1643.41666667
 20
-1101.25
 30
0.0
 40
30.0
  1
数
 41
0.8
 72
       5
 11
1667.41666667
 21
-1101.25
 31
0.0
  0
TEXT
  8
ZUWAKU
 62
       7
  5
45D
 10
1722.16666667
 20
-1101.25
 30
0.0
 40
30.0
  1
記
 41
0.8
 72
       5
 11
1746.16666667
 21
-1101.25
 31
0.0
  0
TEXT
  8
ZUWAKU
 62
       7
  5
45E
 10
1957.16666667
 20
-1101.25
 30
0.0
 40
30.0
  1
事
 41
0.8
 72
       5
 11
1981.16666667
 21
-1101.25
 31
0.0
  0
TEXT
  8
ZUWAKU
 62
       7
  5
45F
 10
1402.16666667
 20
-1277.5
 30
0.0
 40
30.0
  1
田渕
 41
0.8
 72
       5
 11
1450.16666667
 21
-1277.5
 31
0.0
  0
TEXT
  8
ZUWAKU
 62
       7
  5
460
 10
1345.91666667
 20
-1262.5
 30
0.0
 40
30.0
  1
製
 41
0.8
 72
       5
 11
1369.91666667
 21
-1262.5
 31
0.0
  0
TEXT
  8
ZUWAKU
 62
       7
  5
461
 10
1345.91666667
 20
-1292.5
 30
0.0
 40
30.0
  1
図
 41
0.8
 72
       5
 11
1369.91666667
 21
-1292.5
 31
0.0
  0
TEXT
  8
ZUWAKU
 62
       7
  5
462
 10
1488.41666667
 20
-1262.5
 30
0.0
 40
30.0
  1
検
 41
0.8
 72
       5
 11
1512.41666667
 21
-1262.5
 31
0.0
  0
TEXT
  8
ZUWAKU
 62
       7
  5
463
 10
1488.41666667
 20
-1292.5
 30
0.0
 40
30.0
  1
図
 41
0.8
 72
       5
 11
1512.41666667
 21
-1292.5
 31
0.0
  0
TEXT
  8
ZUWAKU
 62
       7
  5
464
 10
1045.91666667
 20
-1341.25
 30
0.0
 40
30.0
  1
表
 41
0.8
 72
       5
 11
1069.91666667
 21
-1341.25
 31
0.0
  0
TEXT
  8
ZUWAKU
 62
       7
  5
465
 10
1075.91666667
 20
-1341.25
 30
0.0
 40
30.0
  1
面
 41
0.8
 72
       5
 11
1099.91666667
 21
-1341.25
 31
0.0
  0
TEXT
  8
ZUWAKU
 62
       7
  5
466
 10
1045.91666667
 20
-1393.75
 30
0.0
 40
30.0
  1
処
 41
0.8
 72
       5
 11
1069.91666667
 21
-1393.75
 31
0.0
  0
TEXT
  8
ZUWAKU
 62
       7
  5
467
 10
1075.91666667
 20
-1393.75
 30
0.0
 40
30.0
  1
理
 41
0.8
 72
       5
 11
1099.91666667
 21
-1393.75
 31
0.0
  0
TEXT
  8
ZUWAKU
 62
       7
  5
468
 10
1687.16666667
 20
-1277.5
 30
0.0
 40
30.0
  1
ｍｍ
 41
0.8
 72
       5
 11
1735.16666667
 21
-1277.5
 31
0.0
  0
TEXT
  8
ZUWAKU
 62
       7
  5
469
 10
1630.91666667
 20
-1262.5
 30
0.0
 40
30.0
  1
単
 41
0.8
 72
       5
 11
1654.91666667
 21
-1262.5
 31
0.0
  0
TEXT
  8
ZUWAKU
 62
       7
  5
46A
 10
1630.91666667
 20
-1292.5
 30
0.0
 40
30.0
  1
位
 41
0.8
 72
       5
 11
1654.91666667
 21
-1292.5
 31
0.0
  0
TEXT
  8
ZUWAKU
 62
       7
  5
46B
 10
1663.73973526
 20
-1350.35709076
 30
0.0
 40
30.0
  1
株
 41
0.8
 72
       5
 11
1687.73973526
 21
-1350.35709076
 31
0.0
  0
TEXT
  8
ZUWAKU
 62
       7
  5
46C
 10
1699.73973526
 20
-1350.35709076
 30
0.0
 40
30.0
  1
式
 41
0.8
 72
       5
 11
1723.73973526
 21
-1350.35709076
 31
0.0
  0
TEXT
  8
ZUWAKU
 62
       7
  5
46D
 10
1663.73973526
 20
-1386.35709076
 30
0.0
 40
30.0
  1
会
 41
0.8
 72
       5
 11
1687.73973526
 21
-1386.35709076
 31
0.0
  0
TEXT
  8
ZUWAKU
 62
       7
  5
46E
 10
1699.73973526
 20
-1386.35709076
 30
0.0
 40
30.0
  1
社
 41
0.8
 72
       5
 11
1723.73973526
 21
-1386.35709076
 31
0.0
  0
TEXT
  8
ZUWAKU
 62
       7
  5
46F
 10
1068.77409332
 20
-1060.86656953
 30
0.0
 40
35.0
  1
1
 41
0.8
 72
       5
 11
1096.77409332
 21
-1060.86656953
 31
0.0
  0
TEXT
  8
ZUWAKU
 62
       7
  5
470
 10
1168.77409332
 20
-1060.86656953
 30
0.0
 40
35.0
  1
屋根組立　
 41
0.8
 72
       5
 11
1308.77409332
 21
-1060.86656953
 31
0.0
  0
TEXT
  8
ZUWAKU
 62
       7
  5
471
 10
1437.15101991
 20
-1060.86656953
 30
0.0
 40
35.0
  1
SGHC 
 41
0.8
 72
       5
 11
1577.15101991
 21
-1060.86656953
 31
0.0
  0
TEXT
  8
ZUWAKU
 62
       7
  5
472
 10
1618.77409332
 20
-1060.86656953
 30
0.0
 40
35.0
  1
1 
 41
0.8
 72
       5
 11
1674.77409332
 21
-1060.86656953
 31
0.0
  0
TEXT
  8
ZUWAKU
 62
       7
  5
473
 10
1702.10742665
 20
-1060.86656953
 30
0.0
 40
35.0
  1
粉体焼付塗装　ｔ1.0
 41
0.8
 72
       5
 11
2010.10742665
 21
-1060.86656953
 31
0.0
  0
TEXT
  8
ZUWAKU
 62
       7
  5
474
 10
1702.10742665
 20
-1010.86656953
 30
0.0
 40
35.0
  1
粉体焼付塗装　ｔ2.0
 41
0.8
 72
       5
 11
2010.10742665
 21
-1010.86656953
 31
0.0
  0
TEXT
  8
ZUWAKU
 62
       7
  5
475
 10
1068.77409332
 20
-1010.86656953
 30
0.0
 40
35.0
  1
2
 41
0.8
 72
       5
 11
1096.77409332
 21
-1010.86656953
 31
0.0
  0
TEXT
  8
ZUWAKU
 62
       7
  5
476
 10
1168.77409332
 20
-1010.86656953
 30
0.0
 40
35.0
  1
脚　組立　
 41
0.8
 72
       5
 11
1308.77409332
 21
-1010.86656953
 31
0.0
  0
TEXT
  8
ZUWAKU
 62
       7
  5
477
 10
1586.92857706
 20
-1010.86656953
 30
0.0
 40
35.0
  1
左右各1 
 41
0.65
 72
       5
 11
1700.67857706
 21
-1010.86656953
 31
0.0
  0
TEXT
  8
ZUWAKU
 62
       7
  5
478
 10
1176.08494541
 20
-1374.09372639
 30
0.0
 40
35.0
  1
塗色　アイボリー　
 41
0.8
 72
       5
 11
1428.08494541
 21
-1374.09372639
 31
0.0
  0
TEXT
  8
ZUWAKU
 62
       7
  5
479
 10
1117.84988956
 20
-1387.22395815
 30
0.0
 40
30.0
  1
　
 41
0.8
 72
       5
 11
1141.84988956
 21
-1387.22395815
 31
0.0
  0
TEXT
  8
ZUWAKU
 62
       7
  5
47A
 10
1114.66666679
 20
-1156.29850564
 30
0.0
 40
40.0
  1
タンクルーフ　ＨＴ-ＪＦ
 41
0.75
 72
       5
 11
1496.66666679
 21
-1156.29850564
 31
0.0
  0
TEXT
  8
ZUWAKU
 62
       7
  5
47B
 10
1114.66666679
 20
-1213.70149436
 30
0.0
 40
40.0
  1
 
 41
0.75
 72
       5
 11
1144.66666679
 21
-1213.70149436
 31
0.0
  0
TEXT
  8
ZUWAKU
 62
       7
  5
47C
 10
1114.66666679
 20
-1209.9373653
 30
0.0
 40
40.0
  1
HT-G　片流れタイプ
 41
0.75
 72
       5
 11
1464.66666679
 21
-1209.9373653
 31
0.0
  0
TEXT
  8
ZUWAKU
 62
       7
  5
47D
 10
1068.77409332
 20
-960.86656953
 30
0.0
 40
35.0
  1
3
 41
0.8
 72
       5
 11
1096.77409332
 21
-960.86656953
 31
0.0
  0
TEXT
  8
ZUWAKU
 62
       7
  5
47E
 10
1702.10742665
 20
-960.86656953
 30
0.0
 40
35.0
  1
M6　クロメートメッキ　
 41
0.75
 72
       5
 11
2017.10742665
 21
-960.86656953
 31
0.0
  0
TEXT
  8
ZUWAKU
 62
       7
  5
47F
 10
1168.77409332
 20
-960.86656953
 30
0.0
 40
35.0
  1
六角ボルト　
 41
0.8
 72
       5
 11
1336.77409332
 21
-960.86656953
 31
0.0
  0
TEXT
  8
ZUWAKU
 62
       7
  5
480
 10
1618.77409332
 20
-960.86656953
 30
0.0
 40
35.0
  1
4 
 41
0.65
 72
       5
 11
1664.27409332
 21
-960.86656953
 31
0.0
  0
TEXT
  8
ZUWAKU
 62
       7
  5
481
 10
1437.15101991
 20
-1010.86656953
 30
0.0
 40
35.0
  1
SGHC 
 41
0.8
 72
       5
 11
1577.15101991
 21
-1010.86656953
 31
0.0
  0
TEXT
  8
ZUWAKU
 62
       7
  5
482
 10
1437.15101991
 20
-960.86656953
 30
0.0
 40
35.0
  1
SS400
 41
0.8
 72
       5
 11
1577.15101991
 21
-960.86656953
 31
0.0
  0
INSERT
  8
0
  6
CONTINUOUS
  5
483
  2
GROUP_1
 10
0.0
 20
0.0
 30
0.0
  0
INSERT
  8
0
  6
CONTINUOUS
  5
484
  2
GROUP_3
 10
0.0
 20
0.0
 30
0.0
  0
INSERT
  8
0
  6
CONTINUOUS
  5
485
  2
GROUP_4
 10
0.0
 20
0.0
 30
0.0
  0
INSERT
  8
0
  6
CONTINUOUS
  5
486
  2
GROUP_5
 10
0.0
 20
0.0
 30
0.0
  0
INSERT
  8
0
  6
CONTINUOUS
  5
487
  2
GROUP_6
 10
0.0
 20
0.0
 30
0.0
  0
INSERT
  8
0
  6
CONTINUOUS
  5
488
  2
GROUP_7
 10
0.0
 20
0.0
 30
0.0
  0
INSERT
  8
0
  6
CONTINUOUS
  5
489
  2
GROUP_8
 10
0.0
 20
0.0
 30
0.0
  0
INSERT
  8
0
  6
CONTINUOUS
  5
48A
  2
GROUP_9
 10
0.0
 20
0.0
 30
0.0
  0
INSERT
  8
0
  6
CONTINUOUS
  5
48B
  2
GROUP_10
 10
0.0
 20
0.0
 30
0.0
  0
INSERT
  8
0
  6
CONTINUOUS
  5
48C
  2
GROUP_11
 10
0.0
 20
0.0
 30
0.0
  0
INSERT
  8
0
  6
CONTINUOUS
  5
48D
  2
GROUP_12
 10
0.0
 20
0.0
 30
0.0
  0
INSERT
  8
0
  6
CONTINUOUS
  5
48E
  2
GROUP_19
 10
0.0
 20
0.0
 30
0.0
  0
INSERT
  8
0
  6
CONTINUOUS
  5
48F
  2
GROUP_20
 10
0.0
 20
0.0
 30
0.0
  0
INSERT
  8
0
  6
CONTINUOUS
  5
490
  2
GROUP_21
 10
0.0
 20
0.0
 30
0.0
  0
INSERT
  8
0
  6
CONTINUOUS
  5
491
  2
GROUP_22
 10
0.0
 20
0.0
 30
0.0
  0
INSERT
  8
0
  6
CONTINUOUS
  5
492
  2
GROUP_23
 10
0.0
 20
0.0
 30
0.0
  0
INSERT
  8
0
  6
CONTINUOUS
  5
493
  2
GROUP_24
 10
0.0
 20
0.0
 30
0.0
  0
INSERT
  8
0
  6
CONTINUOUS
  5
494
  2
GROUP_25
 10
0.0
 20
0.0
 30
0.0
  0
INSERT
  8
0
  6
CONTINUOUS
  5
495
  2
GROUP_26
 10
0.0
 20
0.0
 30
0.0
  0
INSERT
  8
0
  6
CONTINUOUS
  5
496
  2
GROUP_27
 10
0.0
 20
0.0
 30
0.0
  0
INSERT
  8
0
  6
CONTINUOUS
  5
497
  2
GROUP_28
 10
0.0
 20
0.0
 30
0.0
  0
INSERT
  8
0
  6
CONTINUOUS
  5
498
  2
GROUP_29
 10
0.0
 20
0.0
 30
0.0
  0
INSERT
  8
0
  6
CONTINUOUS
  5
499
  2
GROUP_30
 10
0.0
 20
0.0
 30
0.0
  0
INSERT
  8
0
  6
CONTINUOUS
  5
49A
  2
GROUP_31
 10
0.0
 20
0.0
 30
0.0
  0
INSERT
  8
0
  6
CONTINUOUS
  5
49B
  2
GROUP_32
 10
0.0
 20
0.0
 30
0.0
  0
LINE
  8
LAYER0001
  6
CONTINUOUS
 62
       7
  5
49C
 10
-1517.87055894
 20
396.44030111
 30
0.0
 11
124.17383763
 21
396.44030111
 31
0.0
  0
INSERT
  8
LAYER0001
  6
CONTINUOUS
 62
       7
  5
49D
  2
_OPEN30
 10
-1546.84836066
 20
396.44030111
 30
0.0
 41
30.00002788
 42
29.99989274
 50
180.0
  0
INSERT
  8
LAYER0001
  6
CONTINUOUS
 62
       7
  5
49E
  2
_OPEN30
 10
153.15163934
 20
396.44030111
 30
0.0
 41
30.00002788
 42
29.99989274
 50
360.0
  0
LINE
  8
LAYER0001
  6
CONTINUOUS
 62
       7
  5
49F
 10
1569.00324077
 20
-733.22856614
 30
0.0
 11
1569.00324077
 21
60.34283513
 31
0.0
  0
INSERT
  8
LAYER0001
  6
CONTINUOUS
 62
       7
  5
4A0
  2
_OPEN30
 10
1569.00324077
 20
-762.20636786
 30
0.0
 41
30.00002788
 42
29.99989274
 50
270.0
  0
INSERT
  8
LAYER0001
  6
CONTINUOUS
 62
       7
  5
4A1
  2
_OPEN30
 10
1569.00324077
 20
89.32063685
 30
0.0
 41
30.00002788
 42
29.99989274
 50
90.0
  0
LINE
  8
LAYER0001
  6
CONTINUOUS
 62
       7
  5
4A2
 10
1325.81716898
 20
576.5092454
 30
0.0
 11
761.04271884
 21
576.5092454
 31
0.0
  0
INSERT
  8
LAYER0001
  6
CONTINUOUS
 62
       7
  5
4A3
  2
_OPEN30
 10
1354.7949707
 20
576.5092454
 30
0.0
 41
30.00002788
 42
29.99989274
 50
360.0
  0
INSERT
  8
LAYER0001
  6
CONTINUOUS
 62
       7
  5
4A4
  2
_OPEN30
 10
732.06491712
 20
576.5092454
 30
0.0
 41
30.00002788
 42
29.99989274
 50
180.0
  0
LINE
  8
LAYER0001
  6
CONTINUOUS
 62
       7
  5
4A5
 10
1267.97959266
 20
413.88609147
 30
0.0
 11
684.23331655
 21
310.95587311
 31
0.0
  0
INSERT
  8
LAYER0001
  6
CONTINUOUS
 62
       7
  5
4A6
  2
_OPEN30
 10
1296.51715645
 20
418.91803393
 30
0.0
 41
30.00002788
 42
29.99989274
 50
10.0
  0
INSERT
  8
LAYER0001
  6
CONTINUOUS
 62
       7
  5
4A7
  2
_OPEN30
 10
655.69575275
 20
305.92393065
 30
0.0
 41
30.00002788
 42
29.99989274
 50
190.0
  0
LINE
  8
LAYER0001
  6
CONTINUOUS
 62
       7
  5
4A8
 10
1175.94804266
 20
187.14185865
 30
0.0
 11
847.56941573
 21
129.23984684
 31
0.0
  0
INSERT
  8
LAYER0001
  6
CONTINUOUS
 62
       7
  5
4A9
  2
_OPEN30
 10
1204.48560646
 20
192.17380111
 30
0.0
 41
30.00002788
 42
29.99989274
 50
10.0
  0
INSERT
  8
LAYER0001
  6
CONTINUOUS
 62
       7
  5
4AA
  2
_OPEN30
 10
819.03185193
 20
124.20790438
 30
0.0
 41
30.00002788
 42
29.99989274
 50
190.0
  0
LINE
  8
LAYER0001
  6
CONTINUOUS
 62
       7
  5
4AB
 10
-1167.87055894
 20
-1087.59419089
 30
0.0
 11
-225.82616237
 21
-1087.59419089
 31
0.0
  0
INSERT
  8
LAYER0001
  6
CONTINUOUS
 62
       7
  5
4AC
  2
_OPEN30
 10
-1196.84836066
 20
-1087.59419089
 30
0.0
 41
30.00002788
 42
29.99989274
 50
180.0
  0
INSERT
  8
LAYER0001
  6
CONTINUOUS
 62
       7
  5
4AD
  2
_OPEN30
 10
-196.84836066
 20
-1087.59419089
 30
0.0
 41
30.00002788
 42
29.99989274
 50
360.0
  0
LINE
  8
LAYER0001
  6
CONTINUOUS
 62
       7
  5
4AE
 10
-1417.87055894
 20
-930.71123512
 30
0.0
 11
24.17383763
 21
-930.71123512
 31
0.0
  0
INSERT
  8
LAYER0001
  6
CONTINUOUS
 62
       7
  5
4AF
  2
_OPEN30
 10
-1446.84836066
 20
-930.71123512
 30
0.0
 41
30.00002788
 42
29.99989274
 50
180.0
  0
INSERT
  8
LAYER0001
  6
CONTINUOUS
 62
       7
  5
4B0
  2
_OPEN30
 10
53.15163934
 20
-930.71123512
 30
0.0
 41
30.00002788
 42
29.99989274
 50
360.0
  0
LINE
  8
LAYER0001
  6
CONTINUOUS
 62
       7
  5
4B1
 10
-1546.84836066
 20
-2.70636786
 30
0.0
 11
-1546.84836066
 21
406.44030111
 31
0.0
  0
LINE
  8
LAYER0001
  6
CONTINUOUS
 62
       7
  5
4B2
 10
153.15163934
 20
-2.70636786
 30
0.0
 11
153.15163934
 21
406.44030111
 31
0.0
  0
LINE
  8
LAYER0001
  6
CONTINUOUS
 62
       7
  5
4B3
 10
638.11770035
 20
-89.99026197
 30
0.0
 11
647.50043382
 21
-143.20238775
 31
0.0
  0
LINE
  8
LAYER0001
  6
CONTINUOUS
 62
       7
  5
4B4
 10
768.07671962
 20
-67.07498049
 30
0.0
 11
628.26962282
 21
-91.72674375
 31
0.0
  0
LINE
  8
LAYER0001
  6
CONTINUOUS
 62
       7
  5
4B5
 10
718.466449
 20
-130.68916456
 30
0.0
 11
637.65235629
 21
-144.93886952
 31
0.0
  0
LINE
  8
LAYER0001
  6
CONTINUOUS
 62
       7
  5
4B6
 10
1472.48716988
 20
110.26470057
 30
0.0
 11
1481.74711555
 21
57.74893904
 31
0.0
  0
LINE
  8
LAYER0001
  6
CONTINUOUS
 62
       7
  5
4B7
 10
1368.39343882
 20
91.91016727
 30
0.0
 11
1482.33524741
 21
112.00118235
 31
0.0
  0
LINE
  8
LAYER0001
  6
CONTINUOUS
 62
       7
  5
4B8
 10
1317.96401615
 20
28.86955963
 30
0.0
 11
1491.59519308
 21
59.48542081
 31
0.0
  0
LINE
  8
LAYER0001
  6
CONTINUOUS
 62
       7
  5
4B9
 10
1088.26561037
 20
-762.20636786
 30
0.0
 11
1579.00324077
 21
-762.20636786
 31
0.0
  0
LINE
  8
LAYER0001
  6
CONTINUOUS
 62
       7
  5
4BA
 10
1368.7949707
 20
89.32063685
 30
0.0
 11
1579.00324077
 21
89.32063685
 31
0.0
  0
LINE
  8
LAYER0001
  6
CONTINUOUS
 62
       7
  5
4BB
 10
1354.7949707
 20
103.32063685
 30
0.0
 11
1354.7949707
 21
591.5092454
 31
0.0
  0
LINE
  8
LAYER0001
  6
CONTINUOUS
 62
       7
  5
4BC
 10
732.06491712
 20
-112.09963414
 30
0.0
 11
732.06491712
 21
196.21551629
 31
0.0
  0
LINE
  8
LAYER0001
  6
CONTINUOUS
 62
       7
  5
4BD
 10
732.06491712
 20
196.21551629
 30
0.0
 11
732.06491712
 21
591.5092454
 31
0.0
  0
LINE
  8
LAYER0001
  6
CONTINUOUS
 62
       7
  5
4BE
 10
1352.17505579
 20
103.26640132
 30
0.0
 11
1293.91243379
 21
433.69015023
 31
0.0
  0
LINE
  8
LAYER0001
  6
CONTINUOUS
 62
       7
  5
4BF
 10
729.4753867
 20
-112.50116602
 30
0.0
 11
700.4937428
 21
51.86190415
 31
0.0
  0
LINE
  8
LAYER0001
  6
CONTINUOUS
 62
       7
  5
4C0
 10
700.4937428
 20
51.86190415
 30
0.0
 11
653.09103009
 21
320.69604694
 31
0.0
  0
LINE
  8
LAYER0001
  6
CONTINUOUS
 62
       7
  5
4C1
 10
848.26701639
 20
-41.59295232
 30
0.0
 11
816.42712926
 21
138.98002067
 31
0.0
  0
LINE
  8
LAYER0001
  6
CONTINUOUS
 62
       7
  5
4C2
 10
1233.72077092
 20
26.37294442
 30
0.0
 11
1201.88088379
 21
206.94591741
 31
0.0
  0
LINE
  8
LAYER0001
  6
CONTINUOUS
 62
       7
  5
4C3
 10
438.20275929
 20
-18.61030655
 30
0.0
 11
1032.82905552
 21
-18.61030655
 31
0.0
  0
LINE
  8
LAYER0001
  6
CONTINUOUS
 62
       7
  5
4C4
 10
447.38997873
 20
-123.62070526
 30
0.0
 11
618.42154529
 21
-93.46322552
 31
0.0
  0
ARC
  8
LAYER0001
  6
CONTINUOUS
 62
       7
  5
4C5
 10
1042.9335438
 20
-18.61030655
 30
0.0
 40
594.73078451
 50
180.0
 51
190.0
  0
LINE
  8
LAYER0001
  6
CONTINUOUS
 62
       7
  5
4C6
 10
239.78881195
 20
-762.20636786
 30
0.0
 11
239.78881195
 21
-683.70636786
 31
0.0
  0
LINE
  8
LAYER0001
  6
CONTINUOUS
 62
       7
  5
4C7
 10
24.65163934
 20
-762.20636786
 30
0.0
 11
249.78881195
 21
-762.20636786
 31
0.0
  0
LINE
  8
LAYER0001
  6
CONTINUOUS
 62
       7
  5
4C8
 10
14.29880441
 20
-683.70636786
 30
0.0
 11
249.78881195
 21
-683.70636786
 31
0.0
  0
LINE
  8
LAYER0001
  6
CONTINUOUS
 62
       7
  5
4C9
 10
14.29880441
 20
-483.70636786
 30
0.0
 11
249.78881195
 21
-483.70636786
 31
0.0
  0
LINE
  8
LAYER0001
  6
CONTINUOUS
 62
       7
  5
4CA
 10
14.29880441
 20
-633.70636786
 30
0.0
 11
337.50199251
 21
-633.70636786
 31
0.0
  0
LINE
  8
LAYER0001
  6
CONTINUOUS
 62
       7
  5
4CB
 10
14.29880441
 20
-683.70636786
 30
0.0
 11
337.50199251
 21
-683.70636786
 31
0.0
  0
LINE
  8
LAYER0001
  6
CONTINUOUS
 62
       7
  5
4CC
 10
327.50199251
 20
-633.70636786
 30
0.0
 11
327.50199251
 21
-683.70636786
 31
0.0
  0
LINE
  8
LAYER0001
  6
CONTINUOUS
 62
       7
  5
4CD
 10
-1196.84836066
 20
-1188.89863198
 30
0.0
 11
-1196.84836066
 21
-1072.59419089
 31
0.0
  0
LINE
  8
LAYER0001
  6
CONTINUOUS
 62
       7
  5
4CE
 10
-196.84836066
 20
-1188.89863198
 30
0.0
 11
-196.84836066
 21
-1072.59419089
 31
0.0
  0
LINE
  8
LAYER0001
  6
CONTINUOUS
 62
       7
  5
4CF
 10
-1446.84836066
 20
-1188.89863198
 30
0.0
 11
-1446.84836066
 21
-915.71123512
 31
0.0
  0
LINE
  8
LAYER0001
  6
CONTINUOUS
 62
       7
  5
4D0
 10
53.15163934
 20
-1188.89863198
 30
0.0
 11
53.15163934
 21
-915.71123512
 31
0.0
  0
LINE
  8
LAYER0001
  6
CONTINUOUS
 62
       7
  5
4D1
 10
670.36942933
 20
-272.89890622
 30
0.0
 11
652.53237628
 21
-171.73995154
 31
0.0
  0
INSERT
  8
LAYER0001
  6
CONTINUOUS
 62
       7
  5
4D2
  2
_OPEN30
 10
647.50043382
 20
-143.20238775
 30
0.0
 41
30.00002788
 42
29.99989274
 50
100.0
  0
LINE
  8
LAYER0001
  6
CONTINUOUS
 62
       7
  5
4D3
 10
629.43529146
 20
-40.74987432
 30
0.0
 11
633.08575789
 21
-61.45269817
 31
0.0
  0
INSERT
  8
LAYER0001
  6
CONTINUOUS
 62
       7
  5
4D4
  2
_OPEN30
 10
638.11770035
 20
-89.99026197
 30
0.0
 41
30.00002788
 42
29.99989274
 50
280.0
  0
LINE
  8
LAYER0001
  6
CONTINUOUS
 62
       7
  5
4D5
 10
1450.05594021
 20
237.47852558
 30
0.0
 11
1467.45522742
 21
138.80226437
 31
0.0
  0
INSERT
  8
LAYER0001
  6
CONTINUOUS
 62
       7
  5
4D6
  2
_OPEN30
 10
1472.48716988
 20
110.26470057
 30
0.0
 41
30.00002788
 42
29.99989274
 50
280.0
  0
LINE
  8
LAYER0001
  6
CONTINUOUS
 62
       7
  5
4D7
 10
1490.42952443
 20
8.50855139
 30
0.0
 11
1486.77905801
 21
29.21137524
 31
0.0
  0
INSERT
  8
LAYER0001
  6
CONTINUOUS
 62
       7
  5
4D8
  2
_OPEN30
 10
1481.74711555
 20
57.74893904
 30
0.0
 41
30.00002788
 42
29.99989274
 50
100.0
  0
ARC
  8
LAYER0001
  6
CONTINUOUS
 62
       7
  5
4D9
 10
1042.9335438
 20
-18.61030655
 30
0.0
 40
594.73078451
 50
175.18304912
 51
177.20720127
  0
INSERT
  8
LAYER0001
  6
CONTINUOUS
 62
       7
  5
4DA
  2
_OPEN30
 10
448.20275929
 20
-18.61030655
 30
0.0
 41
30.00002788
 42
29.99989274
 50
268.55491383
  0
LINE
  8
LAYER0001
  6
CONTINUOUS
 62
       7
  5
4DB
 10
239.78881195
 20
-907.18416786
 30
0.0
 11
239.78881195
 21
-791.18416957
 31
0.0
  0
INSERT
  8
LAYER0001
  6
CONTINUOUS
 62
       7
  5
4DC
  2
_OPEN30
 10
239.78881195
 20
-762.20636786
 30
0.0
 41
30.00002788
 42
29.99989274
 50
90.0
  0
LINE
  8
LAYER0001
  6
CONTINUOUS
 62
       7
  5
4DD
 10
239.78881195
 20
7.8213612
 30
0.0
 11
239.78881195
 21
-454.72856614
 31
0.0
  0
INSERT
  8
LAYER0001
  6
CONTINUOUS
 62
       7
  5
4DE
  2
_OPEN30
 10
239.78881195
 20
-483.70636786
 30
0.0
 41
30.00002788
 42
29.99989274
 50
270.0
  0
LINE
  8
LAYER0001
  6
CONTINUOUS
 62
       7
  5
4DF
 10
327.50199251
 20
-507.72856786
 30
0.0
 11
327.50199251
 21
-604.72856614
 31
0.0
  0
INSERT
  8
LAYER0001
  6
CONTINUOUS
 62
       7
  5
4E0
  2
_OPEN30
 10
327.50199251
 20
-633.70636786
 30
0.0
 41
30.00002788
 42
29.99989274
 50
270.0
  0
LINE
  8
LAYER0001
  6
CONTINUOUS
 62
       7
  5
4E1
 10
327.50199251
 20
-733.70636786
 30
0.0
 11
327.50199251
 21
-712.68416957
 31
0.0
  0
INSERT
  8
LAYER0001
  6
CONTINUOUS
 62
       7
  5
4E2
  2
_OPEN30
 10
327.50199251
 20
-683.70636786
 30
0.0
 41
30.00002788
 42
29.99989274
 50
90.0
  0
ARC
  8
LAYER0001
  6
CONTINUOUS
 62
       7
  5
4E3
 10
1042.9335438
 20
-18.61030655
 30
0.0
 40
594.73078451
 50
192.79279873
 51
206.02888407
  0
INSERT
  8
LAYER0001
  6
CONTINUOUS
 62
       7
  5
4E4
  2
_OPEN30
 10
457.23805626
 20
-121.88422348
 30
0.0
 41
30.00002788
 42
29.99989274
 50
101.44508617
  0
LINE
  8
LAYER0001
  6
CONTINUOUS
 62
       7
  5
4E5
 10
239.78881195
 20
-683.70636786
 30
0.0
 11
239.78881195
 21
-483.70636786
 31
0.0
  0
INSERT
  8
LAYER0001
  6
CONTINUOUS
 62
       7
  5
4E6
  2
_DOT
 10
239.78881195
 20
-683.70636786
 30
0.0
 41
10.0
 42
10.0
 50
270.0
  0
TEXT
  8
LAYER0001
 62
       7
  5
4E7
 10
-776.84836066
 20
411.44030111
 30
0.0
 40
50.0
  1
1700
 41
0.8
 72
       5
 11
-616.84836066
 21
411.44030111
 31
0.0
  0
TEXT
  8
LAYER0001
 62
       7
  5
4E8
 10
658.78487003
 20
-264.78731047
 30
0.0
 40
50.0
  1
54
 50
100.0
 41
0.75
 72
       5
 11
645.41396035
 21
-188.95711349
 31
0.0
  0
TEXT
  8
LAYER0001
 62
       7
  5
4E9
 10
1455.31525414
 20
150.06376929
 30
0.0
 40
50.0
  1
54
 50
100.0
 41
0.75
 72
       5
 11
1441.94434446
 21
225.89396627
 31
0.0
  0
TEXT
  8
LAYER0001
 62
       7
  5
4EA
 10
1554.00324077
 20
-434.1928655
 30
0.0
 40
50.0
  1
851.5
 50
90.0
 41
0.75
 72
       5
 11
1554.00324077
 21
-238.6928655
 31
0.0
  0
TEXT
  8
LAYER0001
 62
       7
  5
4EB
 10
1007.42994391
 20
591.5092454
 30
0.0
 40
30.0
  1
623
 41
0.8
 72
       5
 11
1079.42994391
 21
591.5092454
 31
0.0
  0
TEXT
  8
LAYER0001
 62
       7
  5
4EC
 10
916.13668033
 20
367.07809224
 30
0.0
 40
50.0
  1
650
 50
10.0
 41
0.75
 72
       5
 11
1030.86678355
 21
387.30810493
 31
0.0
  0
TEXT
  8
LAYER0001
 62
       7
  5
4ED
 10
973.70092742
 20
166.71163464
 30
0.0
 40
30.0
  1
391
 50
10.0
 41
0.8
 72
       5
 11
1044.60708564
 21
179.21430344
 31
0.0
  0
TEXT
  8
LAYER0001
 62
       7
  5
4EE
 10
470.31353632
 20
-150.55529468
 30
0.0
 40
50.0
  1
10°
 50
-71.33525315
 41
0.75
 72
       5
 11
507.59704611
 21
-260.92825286
 31
0.0
  0
TEXT
  8
LAYER0001
 62
       7
  5
4EF
 10
229.78881195
 20
-897.18416786
 30
0.0
 40
30.0
  1
78.5
 50
90.0
 41
0.8
 72
       5
 11
229.78881195
 21
-801.18416786
 31
0.0
  0
TEXT
  8
LAYER0001
 62
       7
  5
4F0
 10
229.78881195
 20
-434.6786388
 30
0.0
 40
50.0
  1
5段切り替えピッチ50
 50
90.0
 41
0.75
 72
       5
 11
229.78881195
 21
-2.1786388
 31
0.0
  0
TEXT
  8
LAYER0001
 62
       7
  5
4F1
 10
317.50199251
 20
-594.72856786
 30
0.0
 40
50.0
  1
50
 50
90.0
 41
0.75
 72
       5
 11
317.50199251
 21
-517.72856786
 31
0.0
  0
TEXT
  8
LAYER0001
 62
       7
  5
4F2
 10
-1011.84836066
 20
-1072.59419089
 30
0.0
 40
50.0
  1
取付ボルトピッチ最小値　1000
 41
0.75
 72
       5
 11
-381.84836066
 21
-1072.59419089
 31
0.0
  0
TEXT
  8
LAYER0001
 62
       7
  5
4F3
 10
-1011.84836066
 20
-915.71123512
 30
0.0
 40
50.0
  1
取付ボルトピッチ最大値　1500
 41
0.75
 72
       5
 11
-381.84836066
 21
-915.71123512
 31
0.0
  0
LINE
  8
LAYER0031
  6
CONTINUOUS
 62
       7
  5
4F4
 10
650.8430467
 20
-1050.41508648
 30
0.0
 11
650.8430467
 21
-989.19857469
 31
0.0
  0
LINE
  8
LAYER0031
  6
CONTINUOUS
 62
       7
  5
4F5
 10
635.2180467
 20
-1050.41508648
 30
0.0
 11
635.2180467
 21
-989.19857469
 31
0.0
  0
LINE
  8
LAYER0031
  6
CONTINUOUS
 62
       7
  5
4F6
 10
635.2180467
 20
-999.19857469
 30
0.0
 11
650.8430467
 21
-999.19857469
 31
0.0
  0
LINE
  8
LAYER0031
  6
CONTINUOUS
 62
       7
  5
4F7
 10
660.8430467
 20
-1110.41508648
 30
0.0
 11
768.76739484
 21
-1110.41508648
 31
0.0
  0
LINE
  8
LAYER0031
  6
CONTINUOUS
 62
       7
  5
4F8
 10
660.8430467
 20
-1060.41508648
 30
0.0
 11
768.76739484
 21
-1060.41508648
 31
0.0
  0
LINE
  8
LAYER0031
  6
CONTINUOUS
 62
       7
  5
4F9
 10
758.76739484
 20
-1110.41508648
 30
0.0
 11
758.76739484
 21
-1060.41508648
 31
0.0
  0
LINE
  8
LAYER0031
  6
CONTINUOUS
 62
       7
  5
4FA
 10
563.3430467
 20
-1120.41508648
 30
0.0
 11
563.3430467
 21
-1244.03365898
 31
0.0
  0
LINE
  8
LAYER0031
  6
CONTINUOUS
 62
       7
  5
4FB
 10
650.8430467
 20
-1120.41508648
 30
0.0
 11
650.8430467
 21
-1244.03365898
 31
0.0
  0
LINE
  8
LAYER0031
  6
CONTINUOUS
 62
       7
  5
4FC
 10
650.8430467
 20
-1234.03365898
 30
0.0
 11
563.3430467
 21
-1234.03365898
 31
0.0
  0
LINE
  8
LAYER0031
  6
CONTINUOUS
 62
       7
  5
4FD
 10
490.18925956
 20
-999.19857469
 30
0.0
 11
606.24024499
 21
-999.19857469
 31
0.0
  0
INSERT
  8
LAYER0031
  6
CONTINUOUS
 62
       7
  5
4FE
  2
_OPEN30
 10
635.2180467
 20
-999.19857469
 30
0.0
 41
30.00002788
 42
29.99989274
 50
360.0
  0
LINE
  8
LAYER0031
  6
CONTINUOUS
 62
       7
  5
4FF
 10
700.8430467
 20
-999.19857469
 30
0.0
 11
679.82084842
 21
-999.19857469
 31
0.0
  0
INSERT
  8
LAYER0031
  6
CONTINUOUS
 62
       7
  5
500
  2
_OPEN30
 10
650.8430467
 20
-999.19857469
 30
0.0
 41
30.00002788
 42
29.99989274
 50
180.0
  0
LINE
  8
LAYER0031
  6
CONTINUOUS
 62
       7
  5
501
 10
758.76739484
 20
-1207.39288648
 30
0.0
 11
758.76739484
 21
-1139.3928882
 31
0.0
  0
INSERT
  8
LAYER0031
  6
CONTINUOUS
 62
       7
  5
502
  2
_OPEN30
 10
758.76739484
 20
-1110.41508648
 30
0.0
 41
30.00002788
 42
29.99989274
 50
90.0
  0
LINE
  8
LAYER0031
  6
CONTINUOUS
 62
       7
  5
503
 10
758.76739484
 20
-1010.41508648
 30
0.0
 11
758.76739484
 21
-1031.43728476
 31
0.0
  0
INSERT
  8
LAYER0031
  6
CONTINUOUS
 62
       7
  5
504
  2
_OPEN30
 10
758.76739484
 20
-1060.41508648
 30
0.0
 41
30.00002788
 42
29.99989274
 50
270.0
  0
LINE
  8
LAYER0031
  6
CONTINUOUS
 62
       7
  5
505
 10
700.8430467
 20
-1234.03365898
 30
0.0
 11
679.82084842
 21
-1234.03365898
 31
0.0
  0
INSERT
  8
LAYER0031
  6
CONTINUOUS
 62
       7
  5
506
  2
_OPEN30
 10
650.8430467
 20
-1234.03365898
 30
0.0
 41
30.00002788
 42
29.99989274
 50
180.0
  0
LINE
  8
LAYER0031
  6
CONTINUOUS
 62
       7
  5
507
 10
513.3430467
 20
-1234.03365898
 30
0.0
 11
534.36524499
 21
-1234.03365898
 31
0.0
  0
INSERT
  8
LAYER0031
  6
CONTINUOUS
 62
       7
  5
508
  2
_OPEN30
 10
563.3430467
 20
-1234.03365898
 30
0.0
 41
30.00002788
 42
29.99989274
 50
360.0
  0
TEXT
  8
LAYER0031
 62
       7
  5
509
 10
500.18925956
 20
-989.19857469
 30
0.0
 40
30.0
  1
12.5
 41
0.8
 72
       5
 11
596.18925956
 21
-989.19857469
 31
0.0
  0
TEXT
  8
LAYER0031
 62
       7
  5
50A
 10
748.76739484
 20
-1197.39288648
 30
0.0
 40
30.0
  1
40
 50
90.0
 41
0.8
 72
       5
 11
748.76739484
 21
-1149.39288648
 31
0.0
  0
TEXT
  8
LAYER0031
 62
       7
  5
50B
 10
583.0930467
 20
-1224.03365898
 30
0.0
 40
30.0
  1
70
 41
0.8
 72
       5
 11
631.0930467
 21
-1224.03365898
 31
0.0
  0
LINE
  8
LAYER0016
  6
CENTER
 62
       7
  5
50C
 10
602.0930467
 20
-1089.79661256
 30
0.0
 11
602.0930467
 21
-1137.41676698
 31
0.0
  0
LINE
  8
0
  6
CONTINUOUS
 62
       7
  5
50D
 10
153.15163934
 20
718.20028509
 30
0.0
 11
153.15163934
 21
1138.93033867
 31
0.0
  0
LINE
  8
0
  6
CONTINUOUS
 62
       7
  5
50E
 10
151.15163934
 20
1211.3531742
 30
0.0
 11
111.15163934
 21
1239.63744545
 31
0.0
  0
LINE
  8
0
  6
CONTINUOUS
 62
       7
  5
50F
 10
111.15163934
 20
1239.63744545
 30
0.0
 11
111.15163934
 21
1239.93033867
 31
0.0
  0
LINE
  8
0
  6
CONTINUOUS
 62
       7
  5
510
 10
151.15163934
 20
645.77744956
 30
0.0
 11
111.15163934
 21
617.49317831
 31
0.0
  0
LINE
  8
0
  6
CONTINUOUS
 62
       7
  5
511
 10
111.15163934
 20
617.49317831
 30
0.0
 11
111.15163934
 21
617.20028509
 31
0.0
  0
LINE
  8
0
  6
CONTINUOUS
 62
       7
  5
512
 10
-1504.84836066
 20
1239.63744545
 30
0.0
 11
-1504.84836066
 21
1239.93033867
 31
0.0
  0
LINE
  8
0
  6
CONTINUOUS
 62
       7
  5
513
 10
-1504.84836066
 20
617.49317831
 30
0.0
 11
-1504.84836066
 21
617.20028509
 31
0.0
  0
LINE
  8
0
  6
CONTINUOUS
 62
       7
  5
514
 10
-1504.84836066
 20
1239.93033867
 30
0.0
 11
111.15163934
 21
1239.93033867
 31
0.0
  0
LINE
  8
0
  6
CONTINUOUS
 62
       7
  5
515
 10
-1544.84836066
 20
1195.90411348
 30
0.0
 11
151.15163934
 21
1195.90411348
 31
0.0
  0
LINE
  8
0
  6
CONTINUOUS
 62
       7
  5
516
 10
-1544.84836066
 20
659.82578934
 30
0.0
 11
151.15163934
 21
659.82578934
 31
0.0
  0
LINE
  8
0
  6
CONTINUOUS
 62
       7
  5
517
 10
-1504.84836066
 20
617.20028509
 30
0.0
 11
111.15163934
 21
617.20028509
 31
0.0
  0
LINE
  8
0
  6
CONTINUOUS
 62
       7
  5
518
 10
151.15163934
 20
1211.3531742
 30
0.0
 11
151.15163934
 21
1138.93033867
 31
0.0
  0
LINE
  8
0
  6
CONTINUOUS
 62
       7
  5
519
 10
151.15163934
 20
1138.93033867
 30
0.0
 11
153.15163934
 21
1138.93033867
 31
0.0
  0
LINE
  8
0
  6
CONTINUOUS
 62
       7
  5
51A
 10
151.15163934
 20
718.20028509
 30
0.0
 11
153.15163934
 21
718.20028509
 31
0.0
  0
LINE
  8
0
  6
CONTINUOUS
 62
       7
  5
51B
 10
151.15163934
 20
645.77744956
 30
0.0
 11
151.15163934
 21
718.20028509
 31
0.0
  0
LINE
  8
0
  6
CONTINUOUS
 62
       7
  5
51C
 10
-1544.84836066
 20
1138.93033867
 30
0.0
 11
-1546.84836066
 21
1138.93033867
 31
0.0
  0
LINE
  8
0
  6
CONTINUOUS
 62
       7
  5
51D
 10
-1544.84836066
 20
1211.3531742
 30
0.0
 11
-1504.84836066
 21
1239.63744545
 31
0.0
  0
LINE
  8
0
  6
CONTINUOUS
 62
       7
  5
51E
 10
-1544.84836066
 20
1211.3531742
 30
0.0
 11
-1544.84836066
 21
1138.93033867
 31
0.0
  0
LINE
  8
0
  6
CONTINUOUS
 62
       7
  5
51F
 10
-1546.84836066
 20
718.20028509
 30
0.0
 11
-1546.84836066
 21
1138.93033867
 31
0.0
  0
LINE
  8
0
  6
CONTINUOUS
 62
       7
  5
520
 10
-1544.84836066
 20
718.20028509
 30
0.0
 11
-1546.84836066
 21
718.20028509
 31
0.0
  0
LINE
  8
0
  6
CONTINUOUS
 62
       7
  5
521
 10
-1544.84836066
 20
645.77744956
 30
0.0
 11
-1544.84836066
 21
718.20028509
 31
0.0
  0
LINE
  8
0
  6
CONTINUOUS
 62
       7
  5
522
 10
-1544.84836066
 20
645.77744956
 30
0.0
 11
-1504.84836066
 21
617.49317831
 31
0.0
  0
LINE
  8
0
  6
CONTINUOUS
 62
       7
  5
523
 10
113.15163934
 20
-126.39252736
 30
0.0
 11
113.15163934
 21
-128.09963414
 31
0.0
  0
LINE
  8
0
  6
CONTINUOUS
 62
       7
  5
524
 10
153.15163934
 20
-82.12769217
 30
0.0
 11
151.79630028
 21
-82.12769217
 31
0.0
  0
LINE
  8
0
  6
CONTINUOUS
 62
       7
  5
525
 10
112.15163934
 20
-126.39252736
 30
0.0
 11
152.15163934
 21
-98.10825611
 31
0.0
  0
LINE
  8
0
  6
CONTINUOUS
 62
       7
  5
526
 10
152.15163934
 20
-98.81536289
 30
0.0
 11
112.15163934
 21
-127.09963414
 31
0.0
  0
LINE
  8
0
  6
CONTINUOUS
 62
       7
  5
527
 10
153.15163934
 20
20.28688525
 30
0.0
 11
153.15163934
 21
-82.12769217
 31
0.0
  0
LINE
  8
0
  6
CONTINUOUS
 62
       7
  5
528
 10
152.15163934
 20
60.0363656
 30
0.0
 11
152.15163934
 21
20.28688525
 31
0.0
  0
LINE
  8
0
  6
CONTINUOUS
 62
       7
  5
529
 10
113.15163934
 20
87.61353007
 30
0.0
 11
113.15163934
 21
89.32063685
 31
0.0
  0
LINE
  8
0
  6
CONTINUOUS
 62
       7
  5
52A
 10
112.15163934
 20
87.61353007
 30
0.0
 11
152.15163934
 21
59.32925882
 31
0.0
  0
LINE
  8
0
  6
CONTINUOUS
 62
       7
  5
52B
 10
152.15163934
 20
60.0363656
 30
0.0
 11
112.15163934
 21
88.32063685
 31
0.0
  0
LINE
  8
0
  6
CONTINUOUS
 62
       7
  5
52C
 10
152.15163934
 20
20.28688525
 30
0.0
 11
153.15163934
 21
20.28688525
 31
0.0
  0
LINE
  8
0
  6
CONTINUOUS
 62
       7
  5
52D
 10
153.15163934
 20
-57.50749835
 30
0.0
 11
152.15163934
 21
-57.50749835
 31
0.0
  0
LINE
  8
0
  6
CONTINUOUS
 62
       7
  5
52E
 10
152.15163934
 20
-82.12769217
 30
0.0
 11
152.15163934
 21
-98.81536289
 31
0.0
  0
LINE
  8
0
  6
CONTINUOUS
 62
       7
  5
52F
 10
-1545.84836066
 20
-65.90880643
 30
0.0
 11
152.15163934
 21
-65.90880643
 31
0.0
  0
LINE
  8
0
  6
CONTINUOUS
 62
       7
  5
530
 10
-1545.84836066
 20
28.61626589
 30
0.0
 11
152.15163934
 21
28.61626589
 31
0.0
  0
LINE
  8
0
  6
CONTINUOUS
 62
       7
  5
531
 10
-1506.84836066
 20
-128.09963414
 30
0.0
 11
113.15163934
 21
-128.09963414
 31
0.0
  0
LINE
  8
0
  6
CONTINUOUS
 62
       7
  5
532
 10
-1506.84836066
 20
89.32063685
 30
0.0
 11
113.15163934
 21
89.32063685
 31
0.0
  0
LINE
  8
0
  6
CONTINUOUS
 62
       7
  5
533
 10
-1506.84836066
 20
-126.39252736
 30
0.0
 11
-1506.84836066
 21
-128.09963414
 31
0.0
  0
LINE
  8
0
  6
CONTINUOUS
 62
       7
  5
534
 10
-1546.84836066
 20
-82.12769217
 30
0.0
 11
-1545.4930216
 21
-82.12769217
 31
0.0
  0
LINE
  8
0
  6
CONTINUOUS
 62
       7
  5
535
 10
-1506.84836066
 20
-125.68542058
 30
0.0
 11
-1545.84836066
 21
-98.10825611
 31
0.0
  0
LINE
  8
0
  6
CONTINUOUS
 62
       7
  5
536
 10
-1545.84836066
 20
-98.81536289
 30
0.0
 11
-1506.84836066
 21
-126.39252736
 31
0.0
  0
LINE
  8
0
  6
CONTINUOUS
 62
       7
  5
537
 10
-1546.84836066
 20
20.28688525
 30
0.0
 11
-1546.84836066
 21
-82.12769217
 31
0.0
  0
LINE
  8
0
  6
CONTINUOUS
 62
       7
  5
538
 10
-1545.84836066
 20
60.0363656
 30
0.0
 11
-1545.84836066
 21
20.28688525
 31
0.0
  0
LINE
  8
0
  6
CONTINUOUS
 62
       7
  5
539
 10
-1506.84836066
 20
87.61353007
 30
0.0
 11
-1506.84836066
 21
89.32063685
 31
0.0
  0
LINE
  8
0
  6
CONTINUOUS
 62
       7
  5
53A
 10
-1506.84836066
 20
86.90642328
 30
0.0
 11
-1545.84836066
 21
59.32925882
 31
0.0
  0
LINE
  8
0
  6
CONTINUOUS
 62
       7
  5
53B
 10
-1545.84836066
 20
60.0363656
 30
0.0
 11
-1506.84836066
 21
87.61353007
 31
0.0
  0
LINE
  8
0
  6
CONTINUOUS
 62
       7
  5
53C
 10
-1545.84836066
 20
20.28688525
 30
0.0
 11
-1546.84836066
 21
20.28688525
 31
0.0
  0
LINE
  8
0
  6
CONTINUOUS
 62
       7
  5
53D
 10
-1546.84836066
 20
-57.50749835
 30
0.0
 11
-1545.84836066
 21
-57.50749835
 31
0.0
  0
LINE
  8
0
  6
CONTINUOUS
 62
       7
  5
53E
 10
-1545.84836066
 20
-82.12769217
 30
0.0
 11
-1545.84836066
 21
-98.81536289
 31
0.0
  0
LINE
  8
0
  6
CENTER
 62
       7
  5
53F
 10
-1630.99119536
 20
938.40097834
 30
0.0
 11
214.00880464
 21
938.40097834
 31
0.0
  0
LINE
  8
0
  6
CENTER
 62
       7
  5
540
 10
-696.84836066
 20
558.1103009
 30
0.0
 11
-696.84836066
 21
1347.94123367
 31
0.0
  0
LINE
  8
0
  6
CENTER
 62
       7
  5
541
 10
-696.84836066
 20
-189.1593341
 30
0.0
 11
-696.84836066
 21
114.83555332
 31
0.0
  0
LINE
  8
LAYER0002
  6
CONTINUOUS
 62
       7
  5
542
 10
854.40676201
 20
-83.32370459
 30
0.0
 11
855.9360947
 21
-91.9969813
 31
0.0
  0
ARC
  8
LAYER0002
  6
CONTINUOUS
 62
       7
  5
543
 10
857.11786401
 20
-91.78860349
 30
0.0
 40
1.2
 50
190.0
 51
370.0
  0
LINE
  8
LAYER0002
  6
CONTINUOUS
 62
       7
  5
544
 10
854.40799074
 20
-83.33067308
 30
0.0
 11
855.58976004
 21
-83.12229526
 31
0.0
  0
LINE
  8
LAYER0002
  6
CONTINUOUS
 62
       7
  5
545
 10
854.54787098
 20
-77.21344875
 30
0.0
 11
857.11786401
 21
-91.78860349
 31
0.0
  0
LINE
  8
LAYER0002
  6
CONTINUOUS
 62
       7
  5
546
 10
855.72964028
 20
-77.00507093
 30
0.0
 11
858.29963331
 21
-91.58022568
 31
0.0
  0
LINE
  8
0
  6
CONTINUOUS
 62
       9
  5
547
 10
1042.9335438
 20
-18.61030655
 30
0.0
 11
1042.82905552
 21
-18.61030655
 31
0.0
  0
LINE
  8
LAYER0004
  6
CONTINUOUS
 62
       7
  5
548
 10
-1408.34836066
 20
-762.20636786
 30
0.0
 11
-1408.34836066
 21
-128.09963414
 31
0.0
  0
LINE
  8
LAYER0004
  6
CONTINUOUS
 62
       7
  5
549
 10
-1408.34836066
 20
-762.20636786
 30
0.0
 11
-1338.34836066
 21
-762.20636786
 31
0.0
  0
LINE
  8
LAYER0004
  6
CONTINUOUS
 62
       7
  5
54A
 10
-1338.34836066
 20
-762.20636786
 30
0.0
 11
-1338.34836066
 21
-128.09963414
 31
0.0
  0
LINE
  8
LAYER0004
  6
CONTINUOUS
 62
       7
  5
54B
 10
14.65163934
 20
-762.20636786
 30
0.0
 11
14.65163934
 21
-128.09963414
 31
0.0
  0
LINE
  8
LAYER0004
  6
CONTINUOUS
 62
       7
  5
54C
 10
14.65163934
 20
-762.20636786
 30
0.0
 11
-55.34836066
 21
-762.20636786
 31
0.0
  0
LINE
  8
LAYER0004
  6
CONTINUOUS
 62
       7
  5
54D
 10
-55.34836066
 20
-762.20636786
 30
0.0
 11
-55.34836066
 21
-128.09963414
 31
0.0
  0
LINE
  8
LAYER0004
  6
CENTER
 62
       7
  5
54E
 10
-26.84836066
 20
-708.50405713
 30
0.0
 11
-26.84836066
 21
-451.66561963
 31
0.0
  0
LINE
  8
LAYER0004
  6
CENTER
 62
       7
  5
54F
 10
-1366.84836066
 20
-708.50405713
 30
0.0
 11
-1366.84836066
 21
-451.66561963
 31
0.0
  0
ENDSEC
  0
EOF
