  0
SECTION
  2
HEADER
  9
$ACADVER
  1
AC1009
  9
$DWGCODEPAGE
  3
ansi_932
  9
$INSBASE
 10
0.0
 20
0.0
 30
0.0
  9
$EXTMIN
 10
-7022.000000000014
 20
-5003.000000000029
 30
0.0
  9
$EXTMAX
 10
7059.999999999985
 20
5019.999999999975
 30
0.0
  9
$LIMMIN
 10
-2520.0
 20
-1782.0
  9
$LIMMAX
 10
2520.0
 20
1782.0
  9
$ORTHOMODE
 70
     0
  9
$REGENMODE
 70
     1
  9
$FILLMODE
 70
     1
  9
$QTEXTMODE
 70
     0
  9
$MIRRTEXT
 70
     1
  9
$DRAGMODE
 70
     2
  9
$LTSCALE
 40
12.0
  9
$OSMODE
 70
    37
  9
$ATTMODE
 70
     1
  9
$TEXTSIZE
 40
0.2
  9
$TRACEWID
 40
0.05
  9
$TEXTSTYLE
  7
STANDARD
  9
$CLAYER
  8
0
  9
$CELTYPE
  6
BYLAYER
  9
$CECOLOR
 62
   256
  9
$DIMSCALE
 40
1.0
  9
$DIMASZ
 40
30.0
  9
$DIMEXO
 40
0.0625
  9
$DIMDLI
 40
0.38
  9
$DIMRND
 40
0.0
  9
$DIMDLE
 40
0.0
  9
$DIMEXE
 40
0.18
  9
$DIMTP
 40
0.0
  9
$DIMTM
 40
0.0
  9
$DIMTXT
 40
0.18
  9
$DIMCEN
 40
0.09
  9
$DIMTSZ
 40
0.0
  9
$DIMTOL
 70
     0
  9
$DIMLIM
 70
     0
  9
$DIMTIH
 70
     1
  9
$DIMTOH
 70
     1
  9
$DIMSE1
 70
     0
  9
$DIMSE2
 70
     0
  9
$DIMTAD
 70
     3
  9
$DIMZIN
 70
     0
  9
$DIMBLK
  1

  9
$DIMASO
 70
     1
  9
$DIMSHO
 70
     1
  9
$DIMPOST
  1

  9
$DIMAPOST
  1

  9
$DIMALT
 70
     0
  9
$DIMALTD
 70
     2
  9
$DIMALTF
 40
25.4
  9
$DIMLFAC
 40
1.0
  9
$DIMTOFL
 70
     0
  9
$DIMTVP
 40
0.0
  9
$DIMTIX
 70
     0
  9
$DIMSOXD
 70
     0
  9
$DIMSAH
 70
     0
  9
$DIMBLK1
  1

  9
$DIMBLK2
  1

  9
$DIMSTYLE
  2
STANDARD
  9
$DIMCLRD
 70
     0
  9
$DIMCLRE
 70
     0
  9
$DIMCLRT
 70
     0
  9
$DIMTFAC
 40
1.0
  9
$DIMGAP
 40
0.09
  9
$LUNITS
 70
     2
  9
$LUPREC
 70
     4
  9
$SKETCHINC
 40
0.1
  9
$FILLETRAD
 40
0.5
  9
$AUNITS
 70
     0
  9
$AUPREC
 70
     0
  9
$MENU
  1
.
  9
$ELEVATION
 40
0.0
  9
$PELEVATION
 40
0.0
  9
$THICKNESS
 40
0.0
  9
$LIMCHECK
 70
     0
  9
$CHAMFERA
 40
0.5
  9
$CHAMFERB
 40
0.5
  9
$SKPOLY
 70
     0
  9
$TDCREATE
 40
2455763.686496551
  9
$TDUPDATE
 40
2455763.686496562
  9
$TDINDWG
 40
0.0000000116
  9
$TDUSRTIMER
 40
0.0000000116
  9
$USRTIMER
 70
     1
  9
$ANGBASE
 50
0.0
  9
$ANGDIR
 70
     0
  9
$PDMODE
 70
     0
  9
$PDSIZE
 40
1.0
  9
$PLINEWID
 40
0.0
  9
$COORDS
 70
     1
  9
$SPLFRAME
 70
     0
  9
$SPLINETYPE
 70
     6
  9
$SPLINESEGS
 70
     8
  9
$ATTDIA
 70
     0
  9
$ATTREQ
 70
     1
  9
$HANDLING
 70
     1
  9
$HANDSEED
  5
77F
  9
$SURFTAB1
 70
     6
  9
$SURFTAB2
 70
     6
  9
$SURFTYPE
 70
     6
  9
$SURFU
 70
     6
  9
$SURFV
 70
     6
  9
$UCSNAME
  2

  9
$UCSORG
 10
0.0
 20
0.0
 30
0.0
  9
$UCSXDIR
 10
1.0
 20
0.0
 30
0.0
  9
$UCSYDIR
 10
0.0
 20
1.0
 30
0.0
  9
$PUCSNAME
  2

  9
$PUCSORG
 10
0.0
 20
0.0
 30
0.0
  9
$PUCSXDIR
 10
1.0
 20
0.0
 30
0.0
  9
$PUCSYDIR
 10
0.0
 20
1.0
 30
0.0
  9
$USERI1
 70
     0
  9
$USERI2
 70
     0
  9
$USERI3
 70
     0
  9
$USERI4
 70
     0
  9
$USERI5
 70
     0
  9
$USERR1
 40
0.0
  9
$USERR2
 40
0.0
  9
$USERR3
 40
0.0
  9
$USERR4
 40
0.0
  9
$USERR5
 40
0.0
  9
$WORLDVIEW
 70
     1
  9
$SHADEDGE
 70
     3
  9
$SHADEDIF
 70
    70
  9
$TILEMODE
 70
     1
  9
$MAXACTVP
 70
    64
  9
$PLIMCHECK
 70
     0
  9
$PEXTMIN
 10
1.000000000000000E+20
 20
1.000000000000000E+20
 30
1.000000000000000E+20
  9
$PEXTMAX
 10
-1.000000000000000E+20
 20
-1.000000000000000E+20
 30
-1.000000000000000E+20
  9
$PLIMMIN
 10
0.0
 20
0.0
  9
$PLIMMAX
 10
12.0
 20
9.0
  9
$UNITMODE
 70
     0
  9
$VISRETAIN
 70
     0
  9
$PLINEGEN
 70
     1
  9
$PSLTSCALE
 70
     0
  0
ENDSEC
  0
SECTION
  2
TABLES
  0
TABLE
  2
VPORT
 70
     1
  0
VPORT
  2
*ACTIVE
 70
     0
 10
0.0
 20
0.0
 11
1.0
 21
1.0
 12
0.0
 22
0.0
 13
0.0
 23
0.0
 14
0.5
 24
0.5
 15
0.5
 25
0.5
 16
0.0
 26
0.0
 36
1.0
 17
18.99999999998647
 27
8.499999999973397
 37
0.0
 40
3407.820000000002
 41
1.404968572283747
 42
50.0
 43
0.0
 44
0.0
 50
0.0
 51
0.0
 71
     0
 72
  1000
 73
     1
 74
     1
 75
     0
 76
     0
 77
     0
 78
     0
  0
ENDTAB
  0
TABLE
  2
LTYPE
 70
    28
  0
LTYPE
  2
CONTINUOUS
 70
     0
  3
Solid line
 72
    65
 73
     0
 40
0.0
  0
LTYPE
  2
HIDDENX2
 70
     0
  3
CADPAC LINETYPE
 72
    65
 73
     2
 40
8.342696629213453
 49
6.25702247191009
 49
-2.085674157303363
  0
LTYPE
  2
HIDDEN
 70
     0
  3
CADPAC LINETYPE
 72
    65
 73
     2
 40
6.25702247191009
 49
4.171348314606727
 49
-2.085674157303363
  0
LTYPE
  2
HIDDEN2
 70
     0
  3
CADPAC LINETYPE
 72
    65
 73
     2
 40
5.214185393258408
 49
3.128511235955045
 49
-2.085674157303363
  0
LTYPE
  2
DASHED
 70
     0
  3
CADPAC LINETYPE
 72
    65
 73
     2
 40
5.839887640449394
 49
4.171348314606727
 49
-1.668539325842668
  0
LTYPE
  2
DASHED2
 70
     0
  3
CADPAC LINETYPE
 72
    65
 73
     2
 40
3.754213483146031
 49
2.502808988764021
 49
-1.25140449438201
  0
LTYPE
  2
DASHEDX2
 70
     0
  3
CADPAC LINETYPE
 72
    65
 73
     2
 40
10.01123595505612
 49
8.342696629213453
 49
-1.668539325842668
  0
LTYPE
  2
DOTX2
 70
     0
  3
CADPAC LINETYPE
 72
    65
 73
     2
 40
3.649929775280896
 49
0.0
 49
-3.649929775280896
  0
LTYPE
  2
DOT
 70
     0
  3
CADPAC LINETYPE
 72
    65
 73
     2
 40
2.919943820224717
 49
0.0
 49
-2.919943820224717
  0
LTYPE
  2
DOT2
 70
     0
  3
CADPAC LINETYPE
 72
    65
 73
     2
 40
2.189957865168537
 49
0.0
 49
-2.189957865168537
  0
LTYPE
  2
CENTERX2
 70
     0
  3
CADPAC LINETYPE
 72
    65
 73
     4
 40
12.51404494382018
 49
5.214185393258408
 49
-2.607092696629204
 49
2.085674157303363
 49
-2.607092696629204
  0
LTYPE
  2
CENTER
 70
     0
  3
CADPAC LINETYPE
 72
    65
 73
     4
 40
9.594101123595472
 49
4.171348314606727
 49
-2.085674157303363
 49
1.251404494382018
 49
-2.085674157303363
  0
LTYPE
  2
CENTER2
 70
     0
  3
CADPAC LINETYPE
 72
    65
 73
     4
 40
6.674157303370762
 49
3.128511235955045
 49
-1.564255617977522
 49
0.4171348314606727
 49
-1.564255617977522
  0
LTYPE
  2
DASHDOTX2
 70
     0
  3
CADPAC LINETYPE
 72
    65
 73
     4
 40
20.02247191011228
 49
10.01123595505616
 49
-3.337078651685374
 49
3.337078651685374
 49
-3.337078651685374
  0
LTYPE
  2
DASHDOT
 70
     0
  3
CADPAC LINETYPE
 72
    65
 73
     4
 40
10.01123595505608
 49
5.00561797752808
 49
-1.668539325842668
 49
1.668539325842668
 49
-1.668539325842668
  0
LTYPE
  2
DASHDOT2
 70
     0
  3
CADPAC LINETYPE
 72
    65
 73
     4
 40
6.42387640449433
 49
3.75421348314606
 49
-1.251404494382001
 49
0.1668539325842668
 49
-1.251404494382001
  0
LTYPE
  2
DIVIDEX2
 70
     0
  3
CADPAC LINETYPE
 72
    65
 73
     6
 40
26.69662921348303
 49
10.01123595505616
 49
-3.337078651685374
 49
3.337078651685374
 49
-3.337078651685374
 49
3.337078651685374
 49
-3.337078651685374
  0
LTYPE
  2
DIVIDE
 70
     0
  3
CADPAC LINETYPE
 72
    65
 73
     6
 40
13.34831460674142
 49
5.00561797752808
 49
-1.668539325842668
 49
1.668539325842668
 49
-1.668539325842668
 49
1.668539325842668
 49
-1.668539325842668
  0
LTYPE
  2
DIVIDE2
 70
     0
  3
CADPAC LINETYPE
 72
    65
 73
     6
 40
10.01123595505607
 49
3.75421348314606
 49
-1.251404494382001
 49
1.251404494382001
 49
-1.251404494382001
 49
1.251404494382001
 49
-1.251404494382001
  0
LTYPE
  2
BORDERX2
 70
     0
  3
CADPAC LINETYPE
 72
    65
 73
     6
 40
18.24964887640443
 49
5.214185393258408
 49
-2.607092696629204
 49
5.214185393258408
 49
-2.607092696629204
 49
0.0
 49
-2.607092696629204
  0
LTYPE
  2
BORDER
 70
     0
  3
CADPAC LINETYPE
 72
    65
 73
     6
 40
14.59971910112354
 49
4.171348314606727
 49
-2.085674157303363
 49
4.171348314606727
 49
-2.085674157303363
 49
0.0
 49
-2.085674157303363
  0
LTYPE
  2
BORDER2
 70
     0
  3
CADPAC LINETYPE
 72
    65
 73
     6
 40
10.84550561797747
 49
3.337078651685374
 49
-2.085674157303363
 49
1.25140449438201
 49
-2.085674157303363
 49
0.0
 49
-2.085674157303363
  0
LTYPE
  2
PHANTOMX2
 70
     0
  3
CADPAC LINETYPE
 72
    65
 73
     6
 40
15.64255617977523
 49
5.214185393258408
 49
-2.085674157303363
 49
2.085674157303363
 49
-2.085674157303363
 49
2.085674157303363
 49
-2.085674157303363
  0
LTYPE
  2
PHANTOM
 70
     0
  3
CADPAC LINETYPE
 72
    65
 73
     6
 40
12.93117977528085
 49
4.171348314606727
 49
-2.085674157303363
 49
1.251404494382018
 49
-2.085674157303363
 49
1.251404494382018
 49
-2.085674157303363
  0
LTYPE
  2
PHANTOM2
 70
     0
  3
CADPAC LINETYPE
 72
    65
 73
     6
 40
11.05407303370783
 49
3.128511235955045
 49
-2.085674157303363
 49
0.8342696629213453
 49
-2.085674157303363
 49
0.8342696629213453
 49
-2.085674157303363
  0
LTYPE
  2
ACAD_ISO06W100
 70
     0
  3
CADPAC LINETYPE
 72
    65
 73
     8
 40
22.10814606741565
 49
10.01123595505616
 49
-2.085674157303363
 49
1.25140449438201
 49
-2.085674157303363
 49
1.25140449438201
 49
-2.085674157303363
 49
1.25140449438201
 49
-2.085674157303363
  0
LTYPE
  2
ACAD_ISO13W100
 70
     0
  3
CADPAC LINETYPE
 72
    65
 73
     8
 40
16.68539325842691
 49
4.171348314606727
 49
-2.085674157303363
 49
4.171348314606727
 49
-2.085674157303363
 49
0.0
 49
-2.085674157303363
 49
0.0
 49
-2.085674157303363
  0
LTYPE
  2
ACAD_ISO14W100
 70
     0
  3
CADPAC LINETYPE
 72
    65
 73
     8
 40
12.51404494382018
 49
4.171348314606727
 49
-2.085674157303363
 49
0.0
 49
-2.085674157303363
 49
0.0
 49
-2.085674157303363
 49
0.0
 49
-2.085674157303363
  0
ENDTAB
  0
TABLE
  2
LAYER
 70
     9
  0
LAYER
  2
0
 70
     0
 62
     7
  6
CONTINUOUS
  0
LAYER
  2
｡｡@@
 70
     0
 62
     7
  6
CONTINUOUS
  0
LAYER
  2
｡｡VV
 70
     0
 62
     7
  6
CONTINUOUS
  0
LAYER
  2
LAYER0010
 70
     0
 62
     7
  6
CONTINUOUS
  0
LAYER
  2
LAYER0015
 70
     0
 62
     7
  6
CONTINUOUS
  0
LAYER
  2
LAYER0016
 70
     0
 62
     7
  6
CONTINUOUS
  0
LAYER
  2
LAYER0017
 70
     0
 62
     7
  6
CONTINUOUS
  0
LAYER
  2
LAYER0023
 70
     0
 62
     7
  6
CONTINUOUS
  0
LAYER
  2
ZUWAKU
 70
     0
 62
     7
  6
CONTINUOUS
  0
ENDTAB
  0
TABLE
  2
STYLE
 70
     2
  0
STYLE
  2
STANDARD
 70
     0
 40
0.0
 41
1.0
 50
0.0
 71
     0
 42
0.2
  3
txt
  4

  0
STYLE
  2
FDASTYLE0
 70
     0
 40
42.0
 41
0.6835443037974683
 50
0.0
 71
     0
 42
0.2
  3
txt.shx
  4
bigfont
  0
ENDTAB
  0
TABLE
  2
VIEW
 70
     0
  0
ENDTAB
  0
TABLE
  2
UCS
 70
     0
  0
ENDTAB
  0
TABLE
  2
APPID
 70
     2
  0
APPID
  2
ACAD
 70
     0
  0
APPID
  2
DAFUSIONOUT
 70
     0
  0
ENDTAB
  0
TABLE
  2
DIMSTYLE
 70
     1
  0
DIMSTYLE
  2
STANDARD
 70
     0
  3

  4

  5

  6

  7

 40
1.0
 41
0.18
 42
0.0625
 43
0.38
 44
0.18
 45
0.0
 46
0.0
 47
0.0
 48
0.0
140
0.18
141
0.09
142
0.0
143
25.4
144
1.0
145
0.0
146
1.0
147
0.09
 71
     0
 72
     0
 73
     1
 74
     1
 75
     0
 76
     0
 77
     0
 78
     0
170
     0
171
     2
172
     0
173
     0
174
     0
175
     0
176
     0
177
     0
178
     0
  0
ENDTAB
  0
ENDSEC
  0
SECTION
  2
BLOCKS
  0
BLOCK
  8
0
  2
$MODEL_SPACE
 70
     0
 10
0.0
 20
0.0
 30
0.0
  3
$MODEL_SPACE
  1

  0
ENDBLK
  5
21
  8
0
  0
BLOCK
 67
     1
  8
0
  2
$PAPER_SPACE
 70
     0
 10
0.0
 20
0.0
 30
0.0
  3
$PAPER_SPACE
  1

  0
ENDBLK
  5
1D
 67
     1
  8
0
  0
BLOCK
  8
0
  2
DC_GROUP_1
 70
     0
 10
0.0
 20
0.0
 30
0.0
  3
DC_GROUP_1
  1

  0
INSERT
  5
175
  8
0
  6
CONTINUOUS
  2
DC_GROUP_2
 10
0.0
 20
0.0
 30
0.0
  0
ENDBLK
  5
54
  8
0
  0
BLOCK
  8
0
  2
DC_GROUP_2
 70
     0
 10
0.0
 20
0.0
 30
0.0
  3
DC_GROUP_2
  1

  0
INSERT
  5
176
  8
0
  6
CONTINUOUS
  2
DC_GROUP_3
 10
0.0
 20
0.0
 30
0.0
  0
INSERT
  5
177
  8
0
  6
CONTINUOUS
  2
DC_GROUP_19
 10
0.0
 20
0.0
 30
0.0
  0
ENDBLK
  5
57
  8
0
  0
BLOCK
  8
0
  2
DC_GROUP_3
 70
     0
 10
0.0
 20
0.0
 30
0.0
  3
DC_GROUP_3
  1

  0
INSERT
  5
178
  8
0
  6
CONTINUOUS
  2
DC_GROUP_4
 10
0.0
 20
0.0
 30
0.0
  0
ENDBLK
  5
5A
  8
0
  0
BLOCK
  8
0
  2
DC_GROUP_4
 70
     0
 10
0.0
 20
0.0
 30
0.0
  3
DC_GROUP_4
  1

  0
LINE
  5
179
  8
0
  6
DASHED2
 62
   190
 10
11.24762331643854
 20
-324.4864618343851
 30
0.0
 11
11.24762331643854
 21
695.5135381656149
 31
0.0
  0
LINE
  5
17A
  8
0
  6
DASHED2
 62
   190
 10
-7.752376683504167
 20
-324.4864618343851
 30
0.0
 11
-7.752376683504167
 21
695.5135381656149
 31
0.0
  0
LINE
  5
17B
  8
0
 62
   190
 10
-56.75237668361058
 20
695.5135381656149
 30
0.0
 11
13.24762331643854
 21
695.5135381656149
 31
0.0
  0
LINE
  5
17C
  8
0
 62
   190
 10
-56.75237668361058
 20
637.6090270509141
 30
0.0
 11
-56.75237668361058
 21
695.5135381656149
 31
0.0
  0
LINE
  5
17D
  8
0
 62
   190
 10
13.24762331643854
 20
637.6090270509141
 30
0.0
 11
13.24762331643854
 21
695.5135381656149
 31
0.0
  0
LINE
  5
17E
  8
0
 62
     3
 10
13.24762331643854
 20
-324.4864618343851
 30
0.0
 11
-56.75237668361058
 21
-324.4864618343851
 31
0.0
  0
LINE
  5
17F
  8
0
 62
     3
 10
-56.75237668361058
 20
-324.4864618343851
 30
0.0
 11
-56.75237668361058
 21
637.6090270509141
 31
0.0
  0
LINE
  5
180
  8
0
 62
     3
 10
13.24762331643854
 20
-324.4864618343851
 30
0.0
 11
13.24762331643854
 21
637.6090270509141
 31
0.0
  0
INSERT
  5
181
  8
0
  6
CONTINUOUS
  2
DC_GROUP_5
 10
0.0
 20
0.0
 30
0.0
  0
INSERT
  5
182
  8
0
  6
CONTINUOUS
  2
DC_GROUP_6
 10
0.0
 20
0.0
 30
0.0
  0
INSERT
  5
183
  8
0
  6
CONTINUOUS
  2
DC_GROUP_7
 10
0.0
 20
0.0
 30
0.0
  0
INSERT
  5
184
  8
0
  6
CONTINUOUS
  2
DC_GROUP_8
 10
0.0
 20
0.0
 30
0.0
  0
INSERT
  5
185
  8
0
  6
CONTINUOUS
  2
DC_GROUP_9
 10
0.0
 20
0.0
 30
0.0
  0
INSERT
  5
186
  8
0
  6
CONTINUOUS
  2
DC_GROUP_10
 10
0.0
 20
0.0
 30
0.0
  0
INSERT
  5
187
  8
0
  6
CONTINUOUS
  2
DC_GROUP_11
 10
0.0
 20
0.0
 30
0.0
  0
INSERT
  5
188
  8
0
  6
CONTINUOUS
  2
DC_GROUP_12
 10
0.0
 20
0.0
 30
0.0
  0
INSERT
  5
189
  8
0
  6
CONTINUOUS
  2
DC_GROUP_13
 10
0.0
 20
0.0
 30
0.0
  0
INSERT
  5
18A
  8
0
  6
CONTINUOUS
  2
DC_GROUP_14
 10
0.0
 20
0.0
 30
0.0
  0
INSERT
  5
18B
  8
0
  6
CONTINUOUS
  2
DC_GROUP_15
 10
0.0
 20
0.0
 30
0.0
  0
INSERT
  5
18C
  8
0
  6
CONTINUOUS
  2
DC_GROUP_16
 10
0.0
 20
0.0
 30
0.0
  0
INSERT
  5
18D
  8
0
  6
CONTINUOUS
  2
DC_GROUP_17
 10
0.0
 20
0.0
 30
0.0
  0
INSERT
  5
18E
  8
0
  6
CONTINUOUS
  2
DC_GROUP_18
 10
0.0
 20
0.0
 30
0.0
  0
ENDBLK
  5
5D
  8
0
  0
BLOCK
  8
0
  2
DC_GROUP_5
 70
     0
 10
0.0
 20
0.0
 30
0.0
  3
DC_GROUP_5
  1

  0
LINE
  5
18F
  8
0
  6
CENTER
 62
     4
 10
-3.794425115003264
 20
242.0135381656149
 30
0.0
 11
-44.87201018680332
 21
242.0135381656149
 31
0.0
  0
LINE
  5
190
  8
0
  6
CENTER
 62
     4
 10
-24.75237668224816
 20
257.9415813567215
 30
0.0
 11
-24.75237668224816
 21
226.5046540058542
 31
0.0
  0
ENDBLK
  5
60
  8
0
  0
BLOCK
  8
0
  2
DC_GROUP_6
 70
     0
 10
0.0
 20
0.0
 30
0.0
  3
DC_GROUP_6
  1

  0
ARC
  5
191
  8
0
 62
     3
 10
-29.25237668224816
 20
242.0135381656149
 30
0.0
 40
7.5
 50
90.0
 51
270.0
  0
LINE
  5
192
  8
0
 62
     3
 10
-20.25237668224816
 20
249.5135381656149
 30
0.0
 11
-29.25237668224816
 21
249.5135381656149
 31
0.0
  0
ARC
  5
193
  8
0
 62
     3
 10
-20.25237668224816
 20
242.0135381656149
 30
0.0
 40
7.5
 50
270.0
 51
450.0
  0
LINE
  5
194
  8
0
 62
     3
 10
-20.25237668224816
 20
234.5135381656149
 30
0.0
 11
-29.25237668224816
 21
234.5135381656149
 31
0.0
  0
ENDBLK
  5
63
  8
0
  0
BLOCK
  8
0
  2
DC_GROUP_7
 70
     0
 10
0.0
 20
0.0
 30
0.0
  3
DC_GROUP_7
  1

  0
LINE
  5
195
  8
0
  6
CENTER
 62
     4
 10
-3.794425115003264
 20
202.0135381656149
 30
0.0
 11
-44.87201018680332
 21
202.0135381656149
 31
0.0
  0
LINE
  5
196
  8
0
  6
CENTER
 62
     4
 10
-24.75237668224816
 20
217.9415813567215
 30
0.0
 11
-24.75237668224816
 21
186.5046540058542
 31
0.0
  0
ENDBLK
  5
66
  8
0
  0
BLOCK
  8
0
  2
DC_GROUP_8
 70
     0
 10
0.0
 20
0.0
 30
0.0
  3
DC_GROUP_8
  1

  0
ARC
  5
197
  8
0
 62
     3
 10
-29.25237668224816
 20
202.0135381656149
 30
0.0
 40
7.5
 50
90.0
 51
270.0
  0
LINE
  5
198
  8
0
 62
     3
 10
-20.25237668224816
 20
209.5135381656149
 30
0.0
 11
-29.25237668224816
 21
209.5135381656149
 31
0.0
  0
ARC
  5
199
  8
0
 62
     3
 10
-20.25237668224816
 20
202.0135381656149
 30
0.0
 40
7.5
 50
270.0
 51
450.0
  0
LINE
  5
19A
  8
0
 62
     3
 10
-20.25237668224816
 20
194.5135381656149
 30
0.0
 11
-29.25237668224816
 21
194.5135381656149
 31
0.0
  0
ENDBLK
  5
69
  8
0
  0
BLOCK
  8
0
  2
DC_GROUP_9
 70
     0
 10
0.0
 20
0.0
 30
0.0
  3
DC_GROUP_9
  1

  0
LINE
  5
19B
  8
0
  6
CENTER
 62
     4
 10
-3.794425115003264
 20
162.0135381656149
 30
0.0
 11
-44.87201018680332
 21
162.0135381656149
 31
0.0
  0
LINE
  5
19C
  8
0
  6
CENTER
 62
     4
 10
-24.75237668224816
 20
177.9415813567215
 30
0.0
 11
-24.75237668224816
 21
146.5046540058542
 31
0.0
  0
ENDBLK
  5
6C
  8
0
  0
BLOCK
  8
0
  2
DC_GROUP_10
 70
     0
 10
0.0
 20
0.0
 30
0.0
  3
DC_GROUP_10
  1

  0
ARC
  5
19D
  8
0
 62
     3
 10
-29.25237668224816
 20
162.0135381656149
 30
0.0
 40
7.5
 50
90.0
 51
270.0
  0
LINE
  5
19E
  8
0
 62
     3
 10
-20.25237668224816
 20
169.5135381656149
 30
0.0
 11
-29.25237668224816
 21
169.5135381656149
 31
0.0
  0
ARC
  5
19F
  8
0
 62
     3
 10
-20.25237668224816
 20
162.0135381656149
 30
0.0
 40
7.5
 50
270.0
 51
450.0
  0
LINE
  5
1A0
  8
0
 62
     3
 10
-20.25237668224816
 20
154.5135381656149
 30
0.0
 11
-29.25237668224816
 21
154.5135381656149
 31
0.0
  0
ENDBLK
  5
6F
  8
0
  0
BLOCK
  8
0
  2
DC_GROUP_11
 70
     0
 10
0.0
 20
0.0
 30
0.0
  3
DC_GROUP_11
  1

  0
LINE
  5
1A1
  8
0
  6
CENTER
 62
     4
 10
-3.794425115003264
 20
-212.9864618343851
 30
0.0
 11
-44.87201018680332
 21
-212.9864618343851
 31
0.0
  0
LINE
  5
1A2
  8
0
  6
CENTER
 62
     4
 10
-24.75237668224816
 20
-197.0584186432785
 30
0.0
 11
-24.75237668224816
 21
-228.4953459941459
 31
0.0
  0
ENDBLK
  5
72
  8
0
  0
BLOCK
  8
0
  2
DC_GROUP_12
 70
     0
 10
0.0
 20
0.0
 30
0.0
  3
DC_GROUP_12
  1

  0
ARC
  5
1A3
  8
0
 62
     3
 10
-29.25237668224816
 20
-212.9864618343851
 30
0.0
 40
7.5
 50
90.0
 51
270.0
  0
LINE
  5
1A4
  8
0
 62
     3
 10
-20.25237668224816
 20
-205.4864618343851
 30
0.0
 11
-29.25237668224816
 21
-205.4864618343851
 31
0.0
  0
ARC
  5
1A5
  8
0
 62
     3
 10
-20.25237668224816
 20
-212.9864618343851
 30
0.0
 40
7.5
 50
270.0
 51
450.0
  0
LINE
  5
1A6
  8
0
 62
     3
 10
-20.25237668224816
 20
-220.4864618343851
 30
0.0
 11
-29.25237668224816
 21
-220.4864618343851
 31
0.0
  0
ENDBLK
  5
75
  8
0
  0
BLOCK
  8
0
  2
DC_GROUP_13
 70
     0
 10
0.0
 20
0.0
 30
0.0
  3
DC_GROUP_13
  1

  0
LINE
  5
1A7
  8
0
  6
CENTER
 62
     4
 10
-3.794425115003264
 20
-252.9864618343851
 30
0.0
 11
-44.87201018680332
 21
-252.9864618343851
 31
0.0
  0
LINE
  5
1A8
  8
0
  6
CENTER
 62
     4
 10
-24.75237668224816
 20
-237.0584186432785
 30
0.0
 11
-24.75237668224816
 21
-268.4953459941459
 31
0.0
  0
ENDBLK
  5
78
  8
0
  0
BLOCK
  8
0
  2
DC_GROUP_14
 70
     0
 10
0.0
 20
0.0
 30
0.0
  3
DC_GROUP_14
  1

  0
ARC
  5
1A9
  8
0
 62
     3
 10
-29.25237668224816
 20
-252.9864618343851
 30
0.0
 40
7.5
 50
90.0
 51
270.0
  0
LINE
  5
1AA
  8
0
 62
     3
 10
-20.25237668224816
 20
-245.4864618343851
 30
0.0
 11
-29.25237668224816
 21
-245.4864618343851
 31
0.0
  0
ARC
  5
1AB
  8
0
 62
     3
 10
-20.25237668224816
 20
-252.9864618343851
 30
0.0
 40
7.5
 50
270.0
 51
450.0
  0
LINE
  5
1AC
  8
0
 62
     3
 10
-20.25237668224816
 20
-260.4864618343851
 30
0.0
 11
-29.25237668224816
 21
-260.4864618343851
 31
0.0
  0
ENDBLK
  5
7B
  8
0
  0
BLOCK
  8
0
  2
DC_GROUP_15
 70
     0
 10
0.0
 20
0.0
 30
0.0
  3
DC_GROUP_15
  1

  0
LINE
  5
1AD
  8
0
  6
CENTER
 62
     4
 10
-3.794425115003264
 20
-292.9864618343851
 30
0.0
 11
-44.87201018680332
 21
-292.9864618343851
 31
0.0
  0
LINE
  5
1AE
  8
0
  6
CENTER
 62
     4
 10
-24.75237668224816
 20
-287.0584186432785
 30
0.0
 11
-24.75237668224816
 21
-318.4953459941459
 31
0.0
  0
ENDBLK
  5
7E
  8
0
  0
BLOCK
  8
0
  2
DC_GROUP_16
 70
     0
 10
0.0
 20
0.0
 30
0.0
  3
DC_GROUP_16
  1

  0
ARC
  5
1AF
  8
0
 62
     3
 10
-29.25237668224816
 20
-292.9864618343851
 30
0.0
 40
7.5
 50
90.0
 51
270.0
  0
LINE
  5
1B0
  8
0
 62
     3
 10
-20.25237668224816
 20
-285.4864618343851
 30
0.0
 11
-29.25237668224816
 21
-285.4864618343851
 31
0.0
  0
ARC
  5
1B1
  8
0
 62
     3
 10
-20.25237668224816
 20
-292.9864618343851
 30
0.0
 40
7.5
 50
270.0
 51
450.0
  0
LINE
  5
1B2
  8
0
 62
     3
 10
-20.25237668224816
 20
-300.4864618343851
 30
0.0
 11
-29.25237668224816
 21
-300.4864618343851
 31
0.0
  0
ENDBLK
  5
81
  8
0
  0
BLOCK
  8
0
  2
DC_GROUP_17
 70
     0
 10
0.0
 20
0.0
 30
0.0
  3
DC_GROUP_17
  1

  0
LINE
  5
1B3
  8
0
  6
CENTER
 62
     4
 10
-3.794425115003264
 20
-97.98646183438484
 30
0.0
 11
-44.87201018680332
 21
-97.98646183438484
 31
0.0
  0
LINE
  5
1B4
  8
0
  6
CENTER
 62
     4
 10
-24.75237668224816
 20
-82.05841864327874
 30
0.0
 11
-24.75237668224816
 21
-113.4953459941461
 31
0.0
  0
ENDBLK
  5
84
  8
0
  0
BLOCK
  8
0
  2
DC_GROUP_18
 70
     0
 10
0.0
 20
0.0
 30
0.0
  3
DC_GROUP_18
  1

  0
ARC
  5
1B5
  8
0
 62
     3
 10
-29.25237668224816
 20
-97.98646183438484
 30
0.0
 40
7.5
 50
90.0
 51
270.0
  0
LINE
  5
1B6
  8
0
 62
     3
 10
-20.25237668224816
 20
-90.48646183438484
 30
0.0
 11
-29.25237668224816
 21
-90.48646183438484
 31
0.0
  0
ARC
  5
1B7
  8
0
 62
     3
 10
-20.25237668224816
 20
-97.98646183438484
 30
0.0
 40
7.5
 50
270.0
 51
450.0
  0
LINE
  5
1B8
  8
0
 62
     3
 10
-20.25237668224816
 20
-105.4864618343848
 30
0.0
 11
-29.25237668224816
 21
-105.4864618343848
 31
0.0
  0
ENDBLK
  5
87
  8
0
  0
BLOCK
  8
0
  2
DC_GROUP_19
 70
     0
 10
0.0
 20
0.0
 30
0.0
  3
DC_GROUP_19
  1

  0
INSERT
  5
1B9
  8
｡｡VV
  6
CONTINUOUS
  2
DC_GROUP_20
 10
0.0
 20
0.0
 30
0.0
  0
ENDBLK
  5
8A
  8
0
  0
BLOCK
  8
0
  2
DC_GROUP_20
 70
     0
 10
0.0
 20
0.0
 30
0.0
  3
DC_GROUP_20
  1

  0
LINE
  5
1BA
  8
｡｡VV
 62
   190
 10
-54.79237668356234
 20
703.5135381656154
 30
0.0
 11
10.2876233164385
 21
703.5135381656154
 31
0.0
  0
ARC
  5
1BB
  8
｡｡VV
 62
   190
 10
-54.79237668356234
 20
700.5535381656154
 30
0.0
 40
2.96
 50
90.0
 51
180.0
  0
LINE
  5
1BC
  8
｡｡VV
 62
   190
 10
-47.25237668423722
 20
742.5135381656154
 30
0.0
 11
2.74762331576278
 21
742.5135381656154
 31
0.0
  0
ARC
  5
1BD
  8
｡｡VV
 62
   190
 10
-47.25237668423722
 20
732.5135381656154
 30
0.0
 40
10.0
 50
89.99999999999963
 51
179.9999999999996
  0
LINE
  5
1BE
  8
｡｡VV
 62
   190
 10
-57.25237668423722
 20
732.5135381656158
 30
0.0
 11
-57.25237668423722
 21
706.713538165617
 31
0.0
  0
ARC
  5
1BF
  8
｡｡VV
 62
   190
 10
-57.25237668423722
 20
704.213538165617
 30
0.0
 40
2.5
 50
343.7251892072603
 51
450.0000000000009
  0
ARC
  5
1C0
  8
｡｡VV
 62
   190
 10
-54.79237668356234
 20
700.5535381656154
 30
0.0
 40
4.96
 50
93.68043775494166
 51
180.0
  0
CIRCLE
  5
1C1
  8
｡｡VV
 62
   190
 10
2.74762331576278
 20
732.5135381656154
 30
0.0
 40
3.5
  0
LINE
  5
1C2
  8
｡｡VV
 62
   190
 10
-59.75237668356147
 20
655.5135381656154
 30
0.0
 11
-57.75237668356147
 21
655.5135381656154
 31
0.0
  0
LINE
  5
1C3
  8
｡｡VV
 62
   190
 10
-59.75237668356147
 20
700.5535381656154
 30
0.0
 11
-59.75237668356147
 21
655.5135381656154
 31
0.0
  0
LINE
  5
1C4
  8
｡｡VV
 62
   190
 10
-57.75237668356147
 20
655.5135381656154
 30
0.0
 11
-57.75237668356147
 21
700.5535381656154
 31
0.0
  0
ARC
  5
1C5
  8
｡｡VV
 62
   190
 10
10.2876233164385
 20
700.5535381656154
 30
0.0
 40
2.96
 50
0.0
 51
90.0
  0
ARC
  5
1C6
  8
｡｡VV
 62
   190
 10
2.74762331576278
 20
732.5135381656154
 30
0.0
 40
10.0
 50
359.9999999999997
 51
449.9999999999997
  0
LINE
  5
1C7
  8
｡｡VV
 62
   190
 10
12.74762331576278
 20
732.5135381656154
 30
0.0
 11
12.74762331576096
 21
706.7135381656161
 31
0.0
  0
ARC
  5
1C8
  8
｡｡VV
 62
   190
 10
12.74762331576096
 20
704.2135381656161
 30
0.0
 40
2.5
 50
89.99999999999962
 51
196.2748107920546
  0
ARC
  5
1C9
  8
｡｡VV
 62
   190
 10
10.28762331752535
 20
700.5535381656154
 30
0.0
 40
4.96
 50
0.0
 51
86.31956227223287
  0
LINE
  5
1CA
  8
｡｡VV
 62
   190
 10
13.24762331643854
 20
700.5535381656154
 30
0.0
 11
13.24762331643854
 21
637.6090270509141
 31
0.0
  0
LINE
  5
1CB
  8
｡｡VV
 62
   190
 10
15.24762331752538
 20
700.5535381656154
 30
0.0
 11
15.24762331752538
 21
637.6090270509141
 31
0.0
  0
LINE
  5
1CC
  8
｡｡VV
  6
DASHED2
 62
   190
 10
-54.79237668356234
 20
705.5135381656154
 30
0.0
 11
10.28762331752535
 21
705.5135381656154
 31
0.0
  0
ARC
  5
1CD
  8
｡｡VV
  6
DASHED2
 62
   190
 10
-54.79237668356234
 20
700.5535381656154
 30
0.0
 40
4.96
 50
90.0
 51
93.68043775494166
  0
ARC
  5
1CE
  8
｡｡VV
  6
DASHED2
 62
   190
 10
10.28762331752535
 20
700.5535381656154
 30
0.0
 40
4.96
 50
86.31956227223287
 51
90.0
  0
LINE
  5
1CF
  8
｡｡VV
 62
     3
 10
13.24762331643854
 20
605.5135381656154
 30
0.0
 11
15.24762331752538
 21
605.5135381656154
 31
0.0
  0
LINE
  5
1D0
  8
｡｡VV
 62
     3
 10
13.24762331643854
 20
637.6090270509141
 30
0.0
 11
13.24762331643854
 21
605.5135381656154
 31
0.0
  0
LINE
  5
1D1
  8
｡｡VV
 62
     3
 10
15.24762331752538
 20
637.6090270509141
 30
0.0
 11
15.24762331752538
 21
605.5135381656154
 31
0.0
  0
INSERT
  5
1D2
  8
｡｡VV
  6
CONTINUOUS
  2
DC_GROUP_21
 10
0.0
 20
0.0
 30
0.0
  0
INSERT
  5
1D3
  8
｡｡VV
  6
CONTINUOUS
  2
DC_GROUP_23
 10
0.0
 20
0.0
 30
0.0
  0
INSERT
  5
1D4
  8
｡｡VV
  6
CONTINUOUS
  2
DC_GROUP_24
 10
0.0
 20
0.0
 30
0.0
  0
ENDBLK
  5
8D
  8
0
  0
BLOCK
  8
0
  2
DC_GROUP_21
 70
     0
 10
0.0
 20
0.0
 30
0.0
  3
DC_GROUP_21
  1

  0
CIRCLE
  5
1D5
  8
｡｡VV
 62
   190
 10
-22.25237668423722
 20
726.0135381656154
 30
0.0
 40
6.6
  0
INSERT
  5
1D6
  8
｡｡VV
  6
CONTINUOUS
  2
DC_GROUP_22
 10
0.0
 20
0.0
 30
0.0
  0
ENDBLK
  5
90
  8
0
  0
BLOCK
  8
0
  2
DC_GROUP_22
 70
     0
 10
0.0
 20
0.0
 30
0.0
  3
DC_GROUP_22
  1

  0
CIRCLE
  5
1D7
  8
｡｡VV
 62
   190
 10
-22.25237668423722
 20
726.0135381656154
 30
0.0
 40
2.45999999999998
  0
CIRCLE
  5
1D8
  8
｡｡VV
 62
   190
 10
-22.25237668423722
 20
726.0135381656154
 30
0.0
 40
3.0
  0
ENDBLK
  5
93
  8
0
  0
BLOCK
  8
0
  2
DC_GROUP_23
 70
     0
 10
0.0
 20
0.0
 30
0.0
  3
DC_GROUP_23
  1

  0
LINE
  5
1D9
  8
｡｡VV
  6
CENTER
 62
   190
 10
-5.75237668423722
 20
726.0135381656154
 30
0.0
 11
-38.75237668423722
 21
726.0135381656154
 31
0.0
  0
LINE
  5
1DA
  8
｡｡VV
  6
CENTER
 62
   190
 10
-22.25237668423722
 20
742.5135381656154
 30
0.0
 11
-22.25237668423722
 21
709.5135381656154
 31
0.0
  0
ENDBLK
  5
96
  8
0
  0
BLOCK
  8
0
  2
DC_GROUP_24
 70
     0
 10
0.0
 20
0.0
 30
0.0
  3
DC_GROUP_24
  1

  0
LINE
  5
1DB
  8
｡｡VV
  6
CENTER
 62
   190
 10
8.99762331576278
 20
732.5135381656154
 30
0.0
 11
-3.50237668423722
 21
732.5135381656154
 31
0.0
  0
LINE
  5
1DC
  8
｡｡VV
  6
CENTER
 62
   190
 10
2.74762331576278
 20
738.7635381656154
 30
0.0
 11
2.74762331576278
 21
726.2635381656154
 31
0.0
  0
ENDBLK
  5
99
  8
0
  0
BLOCK
  8
0
  2
DC_GROUP_25
 70
     0
 10
0.0
 20
0.0
 30
0.0
  3
DC_GROUP_25
  1

  0
INSERT
  5
1DD
  8
0
  6
CONTINUOUS
  2
DC_GROUP_26
 10
0.0
 20
0.0
 30
0.0
  0
ENDBLK
  5
9C
  8
0
  0
BLOCK
  8
0
  2
DC_GROUP_26
 70
     0
 10
0.0
 20
0.0
 30
0.0
  3
DC_GROUP_26
  1

  0
INSERT
  5
1DE
  8
0
  6
CONTINUOUS
  2
DC_GROUP_27
 10
0.0
 20
0.0
 30
0.0
  0
INSERT
  5
1DF
  8
0
  6
CONTINUOUS
  2
DC_GROUP_43
 10
0.0
 20
0.0
 30
0.0
  0
ENDBLK
  5
9F
  8
0
  0
BLOCK
  8
0
  2
DC_GROUP_27
 70
     0
 10
0.0
 20
0.0
 30
0.0
  3
DC_GROUP_27
  1

  0
INSERT
  5
1E0
  8
0
  6
CONTINUOUS
  2
DC_GROUP_28
 10
0.0
 20
0.0
 30
0.0
  0
ENDBLK
  5
A2
  8
0
  0
BLOCK
  8
0
  2
DC_GROUP_28
 70
     0
 10
0.0
 20
0.0
 30
0.0
  3
DC_GROUP_28
  1

  0
LINE
  5
1E1
  8
0
  6
DASHED2
 62
   190
 10
-1860.752376680935
 20
-324.4864618343851
 30
0.0
 11
-1860.752376680935
 21
695.5135381656149
 31
0.0
  0
LINE
  5
1E2
  8
0
  6
DASHED2
 62
   190
 10
-1841.752376680992
 20
-324.4864618343851
 30
0.0
 11
-1841.752376680992
 21
695.5135381656149
 31
0.0
  0
LINE
  5
1E3
  8
0
 62
   190
 10
-1792.752376680886
 20
695.5135381656149
 30
0.0
 11
-1862.752376680935
 21
695.5135381656149
 31
0.0
  0
LINE
  5
1E4
  8
0
 62
   190
 10
-1862.752376680935
 20
637.6090270509141
 30
0.0
 11
-1862.752376680935
 21
695.5135381656149
 31
0.0
  0
LINE
  5
1E5
  8
0
 62
   190
 10
-1792.752376680886
 20
637.6090270509141
 30
0.0
 11
-1792.752376680886
 21
695.5135381656149
 31
0.0
  0
LINE
  5
1E6
  8
0
 62
     3
 10
-1862.752376680935
 20
-324.4864618343851
 30
0.0
 11
-1792.752376680886
 21
-324.4864618343851
 31
0.0
  0
LINE
  5
1E7
  8
0
 62
     3
 10
-1862.752376680935
 20
-324.4864618343851
 30
0.0
 11
-1862.752376680935
 21
637.6090270509141
 31
0.0
  0
LINE
  5
1E8
  8
0
 62
     3
 10
-1792.752376680886
 20
-324.4864618343851
 30
0.0
 11
-1792.752376680886
 21
637.6090270509141
 31
0.0
  0
INSERT
  5
1E9
  8
0
  6
CONTINUOUS
  2
DC_GROUP_29
 10
0.0
 20
0.0
 30
0.0
  0
INSERT
  5
1EA
  8
0
  6
CONTINUOUS
  2
DC_GROUP_30
 10
0.0
 20
0.0
 30
0.0
  0
INSERT
  5
1EB
  8
0
  6
CONTINUOUS
  2
DC_GROUP_31
 10
0.0
 20
0.0
 30
0.0
  0
INSERT
  5
1EC
  8
0
  6
CONTINUOUS
  2
DC_GROUP_32
 10
0.0
 20
0.0
 30
0.0
  0
INSERT
  5
1ED
  8
0
  6
CONTINUOUS
  2
DC_GROUP_33
 10
0.0
 20
0.0
 30
0.0
  0
INSERT
  5
1EE
  8
0
  6
CONTINUOUS
  2
DC_GROUP_34
 10
0.0
 20
0.0
 30
0.0
  0
INSERT
  5
1EF
  8
0
  6
CONTINUOUS
  2
DC_GROUP_35
 10
0.0
 20
0.0
 30
0.0
  0
INSERT
  5
1F0
  8
0
  6
CONTINUOUS
  2
DC_GROUP_36
 10
0.0
 20
0.0
 30
0.0
  0
INSERT
  5
1F1
  8
0
  6
CONTINUOUS
  2
DC_GROUP_37
 10
0.0
 20
0.0
 30
0.0
  0
INSERT
  5
1F2
  8
0
  6
CONTINUOUS
  2
DC_GROUP_38
 10
0.0
 20
0.0
 30
0.0
  0
INSERT
  5
1F3
  8
0
  6
CONTINUOUS
  2
DC_GROUP_39
 10
0.0
 20
0.0
 30
0.0
  0
INSERT
  5
1F4
  8
0
  6
CONTINUOUS
  2
DC_GROUP_40
 10
0.0
 20
0.0
 30
0.0
  0
INSERT
  5
1F5
  8
0
  6
CONTINUOUS
  2
DC_GROUP_41
 10
0.0
 20
0.0
 30
0.0
  0
INSERT
  5
1F6
  8
0
  6
CONTINUOUS
  2
DC_GROUP_42
 10
0.0
 20
0.0
 30
0.0
  0
ENDBLK
  5
A5
  8
0
  0
BLOCK
  8
0
  2
DC_GROUP_29
 70
     0
 10
0.0
 20
0.0
 30
0.0
  3
DC_GROUP_29
  1

  0
LINE
  5
1F7
  8
0
  6
CENTER
 62
     4
 10
-1845.710328249493
 20
242.0135381656149
 30
0.0
 11
-1804.632743177693
 21
242.0135381656149
 31
0.0
  0
LINE
  5
1F8
  8
0
  6
CENTER
 62
     4
 10
-1824.752376682248
 20
257.9415813567215
 30
0.0
 11
-1824.752376682248
 21
226.5046540058542
 31
0.0
  0
ENDBLK
  5
A8
  8
0
  0
BLOCK
  8
0
  2
DC_GROUP_30
 70
     0
 10
0.0
 20
0.0
 30
0.0
  3
DC_GROUP_30
  1

  0
ARC
  5
1F9
  8
0
 62
     3
 10
-1820.252376682248
 20
242.0135381656149
 30
0.0
 40
7.5
 50
270.0
 51
450.0
  0
LINE
  5
1FA
  8
0
 62
     3
 10
-1829.252376682248
 20
249.5135381656149
 30
0.0
 11
-1820.252376682248
 21
249.5135381656149
 31
0.0
  0
ARC
  5
1FB
  8
0
 62
     3
 10
-1829.252376682248
 20
242.0135381656149
 30
0.0
 40
7.5
 50
90.0
 51
270.0
  0
LINE
  5
1FC
  8
0
 62
     3
 10
-1829.252376682248
 20
234.5135381656149
 30
0.0
 11
-1820.252376682248
 21
234.5135381656149
 31
0.0
  0
ENDBLK
  5
AB
  8
0
  0
BLOCK
  8
0
  2
DC_GROUP_31
 70
     0
 10
0.0
 20
0.0
 30
0.0
  3
DC_GROUP_31
  1

  0
LINE
  5
1FD
  8
0
  6
CENTER
 62
     4
 10
-1845.710328249493
 20
202.0135381656149
 30
0.0
 11
-1804.632743177693
 21
202.0135381656149
 31
0.0
  0
LINE
  5
1FE
  8
0
  6
CENTER
 62
     4
 10
-1824.752376682248
 20
217.9415813567215
 30
0.0
 11
-1824.752376682248
 21
186.5046540058542
 31
0.0
  0
ENDBLK
  5
AE
  8
0
  0
BLOCK
  8
0
  2
DC_GROUP_32
 70
     0
 10
0.0
 20
0.0
 30
0.0
  3
DC_GROUP_32
  1

  0
ARC
  5
1FF
  8
0
 62
     3
 10
-1820.252376682248
 20
202.0135381656149
 30
0.0
 40
7.5
 50
270.0
 51
450.0
  0
LINE
  5
200
  8
0
 62
     3
 10
-1829.252376682248
 20
209.5135381656149
 30
0.0
 11
-1820.252376682248
 21
209.5135381656149
 31
0.0
  0
ARC
  5
201
  8
0
 62
     3
 10
-1829.252376682248
 20
202.0135381656149
 30
0.0
 40
7.5
 50
90.0
 51
270.0
  0
LINE
  5
202
  8
0
 62
     3
 10
-1829.252376682248
 20
194.5135381656149
 30
0.0
 11
-1820.252376682248
 21
194.5135381656149
 31
0.0
  0
ENDBLK
  5
B1
  8
0
  0
BLOCK
  8
0
  2
DC_GROUP_33
 70
     0
 10
0.0
 20
0.0
 30
0.0
  3
DC_GROUP_33
  1

  0
LINE
  5
203
  8
0
  6
CENTER
 62
     4
 10
-1845.710328249493
 20
162.0135381656149
 30
0.0
 11
-1804.632743177693
 21
162.0135381656149
 31
0.0
  0
LINE
  5
204
  8
0
  6
CENTER
 62
     4
 10
-1824.752376682248
 20
177.9415813567215
 30
0.0
 11
-1824.752376682248
 21
146.5046540058542
 31
0.0
  0
ENDBLK
  5
B4
  8
0
  0
BLOCK
  8
0
  2
DC_GROUP_34
 70
     0
 10
0.0
 20
0.0
 30
0.0
  3
DC_GROUP_34
  1

  0
ARC
  5
205
  8
0
 62
     3
 10
-1820.252376682248
 20
162.0135381656149
 30
0.0
 40
7.5
 50
270.0
 51
450.0
  0
LINE
  5
206
  8
0
 62
     3
 10
-1829.252376682248
 20
169.5135381656149
 30
0.0
 11
-1820.252376682248
 21
169.5135381656149
 31
0.0
  0
ARC
  5
207
  8
0
 62
     3
 10
-1829.252376682248
 20
162.0135381656149
 30
0.0
 40
7.5
 50
90.0
 51
270.0
  0
LINE
  5
208
  8
0
 62
     3
 10
-1829.252376682248
 20
154.5135381656149
 30
0.0
 11
-1820.252376682248
 21
154.5135381656149
 31
0.0
  0
ENDBLK
  5
B7
  8
0
  0
BLOCK
  8
0
  2
DC_GROUP_35
 70
     0
 10
0.0
 20
0.0
 30
0.0
  3
DC_GROUP_35
  1

  0
LINE
  5
209
  8
0
  6
CENTER
 62
     4
 10
-1845.710328249493
 20
-212.9864618343851
 30
0.0
 11
-1804.632743177693
 21
-212.9864618343851
 31
0.0
  0
LINE
  5
20A
  8
0
  6
CENTER
 62
     4
 10
-1824.752376682248
 20
-197.0584186432785
 30
0.0
 11
-1824.752376682248
 21
-228.4953459941459
 31
0.0
  0
ENDBLK
  5
BA
  8
0
  0
BLOCK
  8
0
  2
DC_GROUP_36
 70
     0
 10
0.0
 20
0.0
 30
0.0
  3
DC_GROUP_36
  1

  0
ARC
  5
20B
  8
0
 62
     3
 10
-1820.252376682248
 20
-212.9864618343851
 30
0.0
 40
7.5
 50
270.0
 51
450.0
  0
LINE
  5
20C
  8
0
 62
     3
 10
-1829.252376682248
 20
-205.4864618343851
 30
0.0
 11
-1820.252376682248
 21
-205.4864618343851
 31
0.0
  0
ARC
  5
20D
  8
0
 62
     3
 10
-1829.252376682248
 20
-212.9864618343851
 30
0.0
 40
7.5
 50
90.0
 51
270.0
  0
LINE
  5
20E
  8
0
 62
     3
 10
-1829.252376682248
 20
-220.4864618343851
 30
0.0
 11
-1820.252376682248
 21
-220.4864618343851
 31
0.0
  0
ENDBLK
  5
BD
  8
0
  0
BLOCK
  8
0
  2
DC_GROUP_37
 70
     0
 10
0.0
 20
0.0
 30
0.0
  3
DC_GROUP_37
  1

  0
LINE
  5
20F
  8
0
  6
CENTER
 62
     4
 10
-1845.710328249493
 20
-252.9864618343851
 30
0.0
 11
-1804.632743177693
 21
-252.9864618343851
 31
0.0
  0
LINE
  5
210
  8
0
  6
CENTER
 62
     4
 10
-1824.752376682248
 20
-237.0584186432785
 30
0.0
 11
-1824.752376682248
 21
-268.4953459941459
 31
0.0
  0
ENDBLK
  5
C0
  8
0
  0
BLOCK
  8
0
  2
DC_GROUP_38
 70
     0
 10
0.0
 20
0.0
 30
0.0
  3
DC_GROUP_38
  1

  0
ARC
  5
211
  8
0
 62
     3
 10
-1820.252376682248
 20
-252.9864618343851
 30
0.0
 40
7.5
 50
270.0
 51
450.0
  0
LINE
  5
212
  8
0
 62
     3
 10
-1829.252376682248
 20
-245.4864618343851
 30
0.0
 11
-1820.252376682248
 21
-245.4864618343851
 31
0.0
  0
ARC
  5
213
  8
0
 62
     3
 10
-1829.252376682248
 20
-252.9864618343851
 30
0.0
 40
7.5
 50
90.0
 51
270.0
  0
LINE
  5
214
  8
0
 62
     3
 10
-1829.252376682248
 20
-260.4864618343851
 30
0.0
 11
-1820.252376682248
 21
-260.4864618343851
 31
0.0
  0
ENDBLK
  5
C3
  8
0
  0
BLOCK
  8
0
  2
DC_GROUP_39
 70
     0
 10
0.0
 20
0.0
 30
0.0
  3
DC_GROUP_39
  1

  0
LINE
  5
215
  8
0
  6
CENTER
 62
     4
 10
-1845.710328249493
 20
-292.9864618343851
 30
0.0
 11
-1804.632743177693
 21
-292.9864618343851
 31
0.0
  0
LINE
  5
216
  8
0
  6
CENTER
 62
     4
 10
-1824.752376682248
 20
-287.0584186432785
 30
0.0
 11
-1824.752376682248
 21
-318.4953459941459
 31
0.0
  0
ENDBLK
  5
C6
  8
0
  0
BLOCK
  8
0
  2
DC_GROUP_40
 70
     0
 10
0.0
 20
0.0
 30
0.0
  3
DC_GROUP_40
  1

  0
ARC
  5
217
  8
0
 62
     3
 10
-1820.252376682248
 20
-292.9864618343851
 30
0.0
 40
7.5
 50
270.0
 51
450.0
  0
LINE
  5
218
  8
0
 62
     3
 10
-1829.252376682248
 20
-285.4864618343851
 30
0.0
 11
-1820.252376682248
 21
-285.4864618343851
 31
0.0
  0
ARC
  5
219
  8
0
 62
     3
 10
-1829.252376682248
 20
-292.9864618343851
 30
0.0
 40
7.5
 50
90.0
 51
270.0
  0
LINE
  5
21A
  8
0
 62
     3
 10
-1829.252376682248
 20
-300.4864618343851
 30
0.0
 11
-1820.252376682248
 21
-300.4864618343851
 31
0.0
  0
ENDBLK
  5
C9
  8
0
  0
BLOCK
  8
0
  2
DC_GROUP_41
 70
     0
 10
0.0
 20
0.0
 30
0.0
  3
DC_GROUP_41
  1

  0
LINE
  5
21B
  8
0
  6
CENTER
 62
     4
 10
-1845.710328249493
 20
-97.98646183438484
 30
0.0
 11
-1804.632743177693
 21
-97.98646183438484
 31
0.0
  0
LINE
  5
21C
  8
0
  6
CENTER
 62
     4
 10
-1824.752376682248
 20
-82.05841864327874
 30
0.0
 11
-1824.752376682248
 21
-113.4953459941461
 31
0.0
  0
ENDBLK
  5
CC
  8
0
  0
BLOCK
  8
0
  2
DC_GROUP_42
 70
     0
 10
0.0
 20
0.0
 30
0.0
  3
DC_GROUP_42
  1

  0
ARC
  5
21D
  8
0
 62
     3
 10
-1820.252376682248
 20
-97.98646183438484
 30
0.0
 40
7.5
 50
270.0
 51
450.0
  0
LINE
  5
21E
  8
0
 62
     3
 10
-1829.252376682248
 20
-90.48646183438484
 30
0.0
 11
-1820.252376682248
 21
-90.48646183438484
 31
0.0
  0
ARC
  5
21F
  8
0
 62
     3
 10
-1829.252376682248
 20
-97.98646183438484
 30
0.0
 40
7.5
 50
90.0
 51
270.0
  0
LINE
  5
220
  8
0
 62
     3
 10
-1829.252376682248
 20
-105.4864618343848
 30
0.0
 11
-1820.252376682248
 21
-105.4864618343848
 31
0.0
  0
ENDBLK
  5
CF
  8
0
  0
BLOCK
  8
0
  2
DC_GROUP_43
 70
     0
 10
0.0
 20
0.0
 30
0.0
  3
DC_GROUP_43
  1

  0
INSERT
  5
221
  8
｡｡VV
  6
CONTINUOUS
  2
DC_GROUP_44
 10
0.0
 20
0.0
 30
0.0
  0
ENDBLK
  5
D2
  8
0
  0
BLOCK
  8
0
  2
DC_GROUP_44
 70
     0
 10
0.0
 20
0.0
 30
0.0
  3
DC_GROUP_44
  1

  0
LINE
  5
222
  8
｡｡VV
 62
   190
 10
-1794.712376680934
 20
703.5135381656154
 30
0.0
 11
-1859.792376680935
 21
703.5135381656154
 31
0.0
  0
ARC
  5
223
  8
｡｡VV
 62
   190
 10
-1794.712376680934
 20
700.5535381656154
 30
0.0
 40
2.96
 50
0.0
 51
90.0
  0
LINE
  5
224
  8
｡｡VV
 62
   190
 10
-1802.252376680259
 20
742.5135381656154
 30
0.0
 11
-1852.252376680259
 21
742.5135381656154
 31
0.0
  0
ARC
  5
225
  8
｡｡VV
 62
   190
 10
-1802.252376680259
 20
732.5135381656154
 30
0.0
 40
10.0
 50
0.0000000000003746
 51
90.00000000000037
  0
LINE
  5
226
  8
｡｡VV
 62
   190
 10
-1792.252376680259
 20
732.5135381656158
 30
0.0
 11
-1792.252376680259
 21
706.713538165617
 31
0.0
  0
ARC
  5
227
  8
｡｡VV
 62
   190
 10
-1792.252376680259
 20
704.213538165617
 30
0.0
 40
2.5
 50
89.99999999999909
 51
196.2748107927396
  0
ARC
  5
228
  8
｡｡VV
 62
   190
 10
-1794.712376680934
 20
700.5535381656154
 30
0.0
 40
4.96
 50
0.000000000000007
 51
86.31956224505835
  0
CIRCLE
  5
229
  8
｡｡VV
 62
   190
 10
-1852.252376680259
 20
732.5135381656154
 30
0.0
 40
3.5
  0
LINE
  5
22A
  8
｡｡VV
 62
   190
 10
-1789.752376680935
 20
655.5135381656154
 30
0.0
 11
-1791.752376680935
 21
655.5135381656154
 31
0.0
  0
LINE
  5
22B
  8
｡｡VV
 62
   190
 10
-1789.752376680935
 20
700.5535381656154
 30
0.0
 11
-1789.752376680935
 21
655.5135381656154
 31
0.0
  0
LINE
  5
22C
  8
｡｡VV
 62
   190
 10
-1791.752376680935
 20
655.5135381656154
 30
0.0
 11
-1791.752376680935
 21
700.5535381656154
 31
0.0
  0
ARC
  5
22D
  8
｡｡VV
 62
   190
 10
-1859.792376680935
 20
700.5535381656154
 30
0.0
 40
2.96
 50
90.0
 51
180.0
  0
ARC
  5
22E
  8
｡｡VV
 62
   190
 10
-1852.252376680259
 20
732.5135381656154
 30
0.0
 40
10.0
 50
90.00000000000037
 51
180.0000000000004
  0
LINE
  5
22F
  8
｡｡VV
 62
   190
 10
-1862.252376680259
 20
732.5135381656154
 30
0.0
 11
-1862.252376680257
 21
706.7135381656161
 31
0.0
  0
ARC
  5
230
  8
｡｡VV
 62
   190
 10
-1862.252376680257
 20
704.2135381656161
 30
0.0
 40
2.5
 50
343.7251892079454
 51
450.0000000000004
  0
ARC
  5
231
  8
｡｡VV
 62
   190
 10
-1859.792376682022
 20
700.5535381656154
 30
0.0
 40
4.96
 50
93.68043772776713
 51
180.0
  0
LINE
  5
232
  8
｡｡VV
 62
   190
 10
-1864.752376682022
 20
700.5535381656154
 30
0.0
 11
-1864.752376682022
 21
637.6090270509141
 31
0.0
  0
LINE
  5
233
  8
｡｡VV
 62
   190
 10
-1862.752376680935
 20
700.5535381656154
 30
0.0
 11
-1862.752376680935
 21
637.6090270509141
 31
0.0
  0
LINE
  5
234
  8
｡｡VV
  6
DASHED2
 62
   190
 10
-1794.712376680934
 20
705.5135381656154
 30
0.0
 11
-1859.792376682022
 21
705.5135381656154
 31
0.0
  0
ARC
  5
235
  8
｡｡VV
  6
DASHED2
 62
   190
 10
-1794.712376680934
 20
700.5535381656154
 30
0.0
 40
4.96
 50
86.31956224505835
 51
90.00000000000001
  0
ARC
  5
236
  8
｡｡VV
  6
DASHED2
 62
   190
 10
-1859.792376682022
 20
700.5535381656154
 30
0.0
 40
4.96
 50
90.00000000000001
 51
93.68043772776713
  0
LINE
  5
237
  8
｡｡VV
 62
     3
 10
-1862.752376680935
 20
605.5135381656154
 30
0.0
 11
-1864.752376682022
 21
605.5135381656154
 31
0.0
  0
LINE
  5
238
  8
｡｡VV
 62
     3
 10
-1864.752376682022
 20
637.6090270509141
 30
0.0
 11
-1864.752376682022
 21
605.5135381656154
 31
0.0
  0
LINE
  5
239
  8
｡｡VV
 62
     3
 10
-1862.752376680935
 20
637.6090270509141
 30
0.0
 11
-1862.752376680935
 21
605.5135381656154
 31
0.0
  0
INSERT
  5
23A
  8
｡｡VV
  6
CONTINUOUS
  2
DC_GROUP_45
 10
0.0
 20
0.0
 30
0.0
  0
INSERT
  5
23B
  8
｡｡VV
  6
CONTINUOUS
  2
DC_GROUP_47
 10
0.0
 20
0.0
 30
0.0
  0
INSERT
  5
23C
  8
｡｡VV
  6
CONTINUOUS
  2
DC_GROUP_48
 10
0.0
 20
0.0
 30
0.0
  0
ENDBLK
  5
D5
  8
0
  0
BLOCK
  8
0
  2
DC_GROUP_45
 70
     0
 10
0.0
 20
0.0
 30
0.0
  3
DC_GROUP_45
  1

  0
CIRCLE
  5
23D
  8
｡｡VV
 62
   190
 10
-1827.252376680259
 20
726.0135381656154
 30
0.0
 40
6.6
  0
INSERT
  5
23E
  8
｡｡VV
  6
CONTINUOUS
  2
DC_GROUP_46
 10
0.0
 20
0.0
 30
0.0
  0
ENDBLK
  5
D8
  8
0
  0
BLOCK
  8
0
  2
DC_GROUP_46
 70
     0
 10
0.0
 20
0.0
 30
0.0
  3
DC_GROUP_46
  1

  0
CIRCLE
  5
23F
  8
｡｡VV
 62
   190
 10
-1827.252376680259
 20
726.0135381656154
 30
0.0
 40
2.45999999999998
  0
CIRCLE
  5
240
  8
｡｡VV
 62
   190
 10
-1827.252376680259
 20
726.0135381656154
 30
0.0
 40
3.0
  0
ENDBLK
  5
DB
  8
0
  0
BLOCK
  8
0
  2
DC_GROUP_47
 70
     0
 10
0.0
 20
0.0
 30
0.0
  3
DC_GROUP_47
  1

  0
LINE
  5
241
  8
｡｡VV
  6
CENTER
 62
   190
 10
-1843.752376680259
 20
726.0135381656154
 30
0.0
 11
-1810.752376680259
 21
726.0135381656154
 31
0.0
  0
LINE
  5
242
  8
｡｡VV
  6
CENTER
 62
   190
 10
-1827.252376680259
 20
742.5135381656154
 30
0.0
 11
-1827.252376680259
 21
709.5135381656154
 31
0.0
  0
ENDBLK
  5
DE
  8
0
  0
BLOCK
  8
0
  2
DC_GROUP_48
 70
     0
 10
0.0
 20
0.0
 30
0.0
  3
DC_GROUP_48
  1

  0
LINE
  5
243
  8
｡｡VV
  6
CENTER
 62
   190
 10
-1858.502376680259
 20
732.5135381656154
 30
0.0
 11
-1846.002376680259
 21
732.5135381656154
 31
0.0
  0
LINE
  5
244
  8
｡｡VV
  6
CENTER
 62
   190
 10
-1852.252376680259
 20
738.7635381656154
 30
0.0
 11
-1852.252376680259
 21
726.2635381656154
 31
0.0
  0
ENDBLK
  5
E1
  8
0
  0
BLOCK
  8
0
  2
DC_GROUP_49
 70
     0
 10
0.0
 20
0.0
 30
0.0
  3
DC_GROUP_49
  1

  0
TEXT
  5
246
  8
ZUWAKU
 62
     4
 10
1132.518409674256
 20
-934.2667419434623
 30
0.0
 40
42.0
  1
＠　エア抜きパイプは付属の短ﾀｲﾌﾟに交換してください
 41
0.6835443037974683
  7
FDASTYLE0
 72
     5
 11
2039.718409674256
 21
-934.2667419434623
 31
0.0
  0
LINE
  5
247
  8
ZUWAKU
 62
     6
 10
1128.318409674256
 20
-938.4667419434625
 30
0.0
 11
2043.918409674255
 21
-938.4667419434625
 31
0.0
  0
ENDBLK
  5
E4
  8
0
  0
BLOCK
  8
0
  2
DC_GROUP_50
 70
     0
 10
0.0
 20
0.0
 30
0.0
  3
DC_GROUP_50
  1

  0
TEXT
  5
248
  8
ZUWAKU
 62
     4
 10
1132.518409674256
 20
-874.2667419434627
 30
0.0
 40
42.0
  1
※　タンク高さを高い位置にした場合のみ脚取り付け用で使用
 41
0.6666666666666667
  7
FDASTYLE0
 72
     5
 11
2073.318409674256
 21
-874.2667419434627
 31
0.0
  0
LINE
  5
249
  8
ZUWAKU
 62
     6
 10
1128.318409674256
 20
-878.4667419434627
 30
0.0
 11
2077.518409674255
 21
-878.4667419434627
 31
0.0
  0
ENDBLK
  5
E7
  8
0
  0
BLOCK
  8
0
  2
DC_GROUP_51
 70
     0
 10
0.0
 20
0.0
 30
0.0
  3
DC_GROUP_51
  1

  0
CIRCLE
  5
24A
  8
0
 62
     3
 10
1076.761338629267
 20
615.5135381656152
 30
0.0
 40
2.5
  0
CIRCLE
  5
24B
  8
0
 62
     3
 10
1076.761338629267
 20
685.5135381656152
 30
0.0
 40
2.5
  0
LINE
  5
24C
  8
0
 62
     3
 10
1054.061338629267
 20
-324.4864618343851
 30
0.0
 11
1101.761338629271
 21
-324.4864618343851
 31
0.0
  0
LINE
  5
24D
  8
0
 62
     3
 10
1053.761338629266
 20
-324.4864618343851
 30
0.0
 11
1053.761338629267
 21
600.2238886584609
 31
0.0
  0
LINE
  5
24E
  8
0
 62
     3
 10
1101.761338629271
 20
-324.4864618343851
 30
0.0
 11
1101.761338629271
 21
611.1238480028084
 31
0.0
  0
CIRCLE
  5
24F
  8
0
 62
     3
 10
1076.761338629267
 20
685.5135381656152
 30
0.0
 40
6.0
  0
CIRCLE
  5
250
  8
0
 62
     3
 10
1076.761338629267
 20
635.5135381656152
 30
0.0
 40
6.0
  0
CIRCLE
  5
251
  8
0
 62
     3
 10
1076.761338629267
 20
615.5135381656152
 30
0.0
 40
6.0
  0
LINE
  5
252
  8
0
  6
DASHED2
 62
   190
 10
1055.761338629272
 20
695.5135381656152
 30
0.0
 11
1055.761338629271
 21
-324.4864618343851
 31
0.0
  0
LINE
  5
253
  8
0
  6
DASHED2
 62
   190
 10
1101.761338629272
 20
695.5135381656152
 30
0.0
 11
1053.761338629267
 21
695.5135381656152
 31
0.0
  0
LINE
  5
254
  8
0
  6
DASHED2
 62
   190
 10
1099.761338629272
 20
695.5135381656152
 30
0.0
 11
1099.761338629271
 21
-324.4864618343851
 31
0.0
  0
LINE
  5
255
  8
0
  6
DASHED2
 62
   190
 10
1053.761338629267
 20
600.223888658461
 30
0.0
 11
1053.761338629267
 21
695.5135381656152
 31
0.0
  0
LINE
  5
256
  8
0
  6
DASHED2
 62
   190
 10
1101.761338629272
 20
611.1238480028084
 30
0.0
 11
1101.761338629272
 21
695.5135381656152
 31
0.0
  0
LINE
  5
257
  8
0
  6
CENTER
 62
     4
 10
1041.526299860901
 20
-212.986461834385
 30
0.0
 11
1063.453602445119
 21
-212.986461834385
 31
0.0
  0
LINE
  5
258
  8
0
  6
CENTER
 62
     4
 10
1041.526299860901
 20
242.0135381656149
 30
0.0
 11
1063.453602445119
 21
242.0135381656149
 31
0.0
  0
LINE
  5
259
  8
0
  6
CENTER
 62
     4
 10
1041.526299860901
 20
202.0135381656149
 30
0.0
 11
1063.453602445119
 21
202.0135381656149
 31
0.0
  0
LINE
  5
25A
  8
0
  6
CENTER
 62
     4
 10
1041.526299860901
 20
162.013538165615
 30
0.0
 11
1063.453602445119
 21
162.013538165615
 31
0.0
  0
LINE
  5
25B
  8
0
  6
CENTER
 62
     4
 10
1041.526299860901
 20
-252.986461834385
 30
0.0
 11
1063.453602445119
 21
-252.986461834385
 31
0.0
  0
LINE
  5
25C
  8
0
  6
CENTER
 62
     4
 10
1041.526299860901
 20
-292.9864618343851
 30
0.0
 11
1063.453602445119
 21
-292.9864618343851
 31
0.0
  0
LINE
  5
25D
  8
0
  6
CENTER
 62
     4
 10
1041.526299860901
 20
-97.98646183438501
 30
0.0
 11
1063.453602445119
 21
-97.98646183438501
 31
0.0
  0
INSERT
  5
25E
  8
0
  6
CONTINUOUS
  2
DC_GROUP_52
 10
0.0
 20
0.0
 30
0.0
  0
ENDBLK
  5
EA
  8
0
  0
BLOCK
  8
0
  2
DC_GROUP_52
 70
     0
 10
0.0
 20
0.0
 30
0.0
  3
DC_GROUP_52
  1

  0
INSERT
  5
25F
  8
0
  6
CONTINUOUS
  2
DC_GROUP_53
 10
0.0
 20
0.0
 30
0.0
  0
ENDBLK
  5
ED
  8
0
  0
BLOCK
  8
0
  2
DC_GROUP_53
 70
     0
 10
0.0
 20
0.0
 30
0.0
  3
DC_GROUP_53
  1

  0
LINE
  5
260
  8
0
 62
     3
 10
1283.080454077243
 20
695.46014552296
 30
0.0
 11
1205.804635920067
 21
631.063003231243
 31
0.0
  0
LINE
  5
261
  8
0
 62
     3
 10
817.2383592927537
 20
660.061167032458
 30
0.0
 11
820.7113228460931
 21
640.365011972213
 31
0.0
  0
LINE
  5
262
  8
0
 62
     3
 10
817.5856556480886
 20
658.0915515264329
 30
0.0
 11
814.6312323890517
 21
657.5706069934319
 31
0.0
  0
CIRCLE
  5
263
  8
0
 62
     3
 10
1076.761338629267
 20
685.5135381656152
 30
0.0
 40
2.499999999999998
  0
LINE
  5
264
  8
0
 62
     3
 10
1289.946080738615
 20
743.4122923125848
 30
0.0
 11
1293.419044291954
 21
723.7161372523398
 31
0.0
  0
LINE
  5
265
  8
0
 62
     3
 10
1290.930888491627
 20
743.5859404902514
 30
0.0
 11
816.2535515397432
 21
659.8875188547905
 31
0.0
  0
CIRCLE
  5
266
  8
0
 62
     3
 10
1085.443747512613
 20
636.2731505150047
 30
0.0
 40
2.499999999999998
  0
CIRCLE
  5
267
  8
0
 62
     3
 10
1088.916711065952
 20
616.5769954547601
 30
0.0
 40
2.499999999999998
  0
CIRCLE
  5
268
  8
0
 62
     3
 10
1076.761338629267
 20
635.5135381656152
 30
0.0
 40
2.499999999999997
  0
CIRCLE
  5
269
  8
0
 62
     3
 10
1076.761338629267
 20
615.5135381656152
 30
0.0
 40
2.499999999999997
  0
LINE
  5
26A
  8
0
 62
     3
 10
1191.808438874417
 20
624.565317040248
 30
0.0
 11
1103.948097508428
 21
609.0731683231667
 31
0.0
  0
LINE
  5
26B
  8
0
 62
     3
 10
1099.024058743366
 20
608.2049274348325
 30
0.0
 11
950.1056366903404
 21
581.9465917023532
 31
0.0
  0
ARC
  5
26C
  8
0
 62
     3
 10
1101.486078125896
 20
608.6390478789996
 30
0.0
 40
2.499999999999998
 50
9.999999999999996
 51
190.0
  0
ARC
  5
26D
  8
0
 62
     3
 10
1263.874811701588
 20
718.5066919223319
 30
0.0
 40
29.99999999999999
 50
309.8058455205136
 51
370.0
  0
LINE
  5
26E
  8
0
 62
     3
 10
840.0905381212743
 20
617.3490711581495
 30
0.0
 11
934.7311740451496
 21
583.2654381486469
 31
0.0
  0
ARC
  5
26F
  8
0
 62
     3
 10
850.2555554364591
 20
645.5744573022217
 30
0.0
 40
29.99999999999999
 50
190.0
 51
250.1941544794826
  0
ARC
  5
270
  8
0
 62
     3
 10
1263.874811701588
 20
718.5066919223319
 30
0.0
 40
29.99999999999999
 50
309.8058455205133
 51
370.0
  0
ARC
  5
271
  8
0
 62
     3
 10
944.8961913603325
 20
611.4908242927191
 30
0.0
 40
29.99999999999999
 50
250.1941544794869
 51
280.0
  0
ARC
  5
272
  8
0
 62
     3
 10
1186.59899354441
 20
654.109549630614
 30
0.0
 40
29.99999999999999
 50
280.0
 51
309.8058455205155
  0
LINE
  5
273
  8
0
 62
     3
 10
813.7356529635712
 20
674.1672312734705
 30
0.0
 11
816.2535515397423
 21
659.8875188547901
 31
0.0
  0
LINE
  5
274
  8
0
 62
     3
 10
814.6312323890517
 20
657.5706069934319
 30
0.0
 11
811.7660374575466
 21
673.8199349181356
 31
0.0
  0
LINE
  5
275
  8
0
 62
     3
 10
1288.412989915456
 20
757.8656529089318
 30
0.0
 11
1290.930888491626
 21
743.5859404902509
 31
0.0
  0
LINE
  5
276
  8
0
 62
     3
 10
1293.247800352985
 20
741.9636213395603
 30
0.0
 11
1290.38260542148
 21
758.212949264264
 31
0.0
  0
LINE
  5
277
  8
0
 62
   190
 10
807.8589534600407
 20
695.9781093609087
 30
0.0
 11
809.8285689660653
 21
696.3254057162436
 31
0.0
  0
LINE
  5
278
  8
0
 62
   190
 10
1286.475521423974
 20
780.3711237070371
 30
0.0
 11
1284.505905917949
 21
780.023827351704
 31
0.0
  0
LINE
  5
279
  8
0
 62
   190
 10
809.8285689660653
 20
696.3254057162436
 30
0.0
 11
813.7356529635712
 21
674.1672312734705
 31
0.0
  0
LINE
  5
27A
  8
0
 62
   190
 10
811.7660374575466
 20
673.8199349181356
 30
0.0
 11
807.8589534600407
 21
695.9781093609087
 31
0.0
  0
LINE
  5
27B
  8
0
 62
   190
 10
1284.505905917949
 20
780.023827351704
 30
0.0
 11
1288.412989915456
 21
757.8656529089318
 31
0.0
  0
LINE
  5
27C
  8
0
 62
   190
 10
1290.38260542148
 20
758.212949264264
 30
0.0
 11
1286.475521423974
 21
780.3711237070371
 31
0.0
  0
LINE
  5
27D
  8
0
  6
DASHED2
 62
   190
 10
1293.247800352986
 20
741.9636213395594
 30
0.0
 11
817.5856556480886
 21
658.0915515264325
 31
0.0
  0
LINE
  5
27E
  8
0
  6
DASHED2
 62
   190
 10
855.4650007664668
 20
616.0302247118549
 30
0.0
 11
1269.084257031595
 21
688.962459331966
 31
0.0
  0
ARC
  5
27F
  8
0
  6
DASHED2
 62
   190
 10
1263.874811701588
 20
718.5066919223319
 30
0.0
 40
29.99999999999999
 50
280.0
 51
309.8058455205139
  0
INSERT
  5
280
  8
0
  6
CONTINUOUS
  2
DC_GROUP_54
 10
0.0
 20
0.0
 30
0.0
  0
INSERT
  5
281
  8
0
  6
CONTINUOUS
  2
DC_GROUP_55
 10
0.0
 20
0.0
 30
0.0
  0
ENDBLK
  5
F0
  8
0
  0
BLOCK
  8
0
  2
DC_GROUP_54
 70
     0
 10
0.0
 20
0.0
 30
0.0
  3
DC_GROUP_54
  1

  0
LINE
  5
282
  8
0
  6
DASHED2
 62
   190
 10
809.5780704189439
 20
686.2285126060875
 30
0.0
 11
811.8702263641472
 21
673.2290502663274
 31
0.0
  0
LINE
  5
283
  8
0
  6
DASHED2
 62
   190
 10
809.5780704189439
 20
686.2285126060875
 30
0.0
 11
811.153762823763
 21
686.5063496903546
 31
0.0
  0
LINE
  5
284
  8
0
  6
DASHED2
 62
   190
 10
811.8702263641472
 20
673.2290502663274
 30
0.0
 11
813.4459187689664
 21
673.5068873505944
 31
0.0
  0
LINE
  5
285
  8
0
  6
DASHED2
 62
   190
 10
811.153762823763
 20
686.5063496903546
 30
0.0
 11
811.4533059302395
 21
684.807556316409
 31
0.0
  0
LINE
  5
286
  8
0
  6
DASHED2
 62
   190
 10
813.1463756624909
 20
675.2056807245405
 30
0.0
 11
813.4459187689664
 21
673.5068873505944
 31
0.0
  0
LINE
  5
287
  8
0
  6
DASHED2
 62
   190
 10
810.2969738744852
 20
682.1514085086179
 30
0.0
 11
819.3572052021965
 21
683.7489717431532
 31
0.0
  0
LINE
  5
288
  8
0
  6
DASHED2
 62
   190
 10
811.151322908606
 20
677.3061543637974
 30
0.0
 11
820.2115542363182
 21
678.9037175983332
 31
0.0
  0
LINE
  5
289
  8
0
  6
DASHED2
 62
   190
 10
810.203203858545
 20
682.6832046952437
 30
0.0
 11
819.2634351862581
 21
684.2807679297799
 31
0.0
  0
LINE
  5
28A
  8
0
  6
DASHED2
 62
   190
 10
811.2450929245462
 20
676.7743581771707
 30
0.0
 11
820.3053242522584
 21
678.3719214117065
 31
0.0
  0
LINE
  5
28B
  8
0
 62
   190
 10
818.9378448531317
 20
686.1272824666777
 30
0.0
 11
811.4533059302395
 21
684.807556316409
 31
0.0
  0
LINE
  5
28C
  8
0
 62
   190
 10
818.9378448531317
 20
686.1272824666777
 30
0.0
 11
820.630914585384
 21
676.5254068748092
 31
0.0
  0
LINE
  5
28D
  8
0
 62
   190
 10
820.630914585384
 20
676.5254068748092
 30
0.0
 11
813.1463756624909
 21
675.2056807245405
 31
0.0
  0
ENDBLK
  5
F3
  8
0
  0
BLOCK
  8
0
  2
DC_GROUP_55
 70
     0
 10
0.0
 20
0.0
 30
0.0
  3
DC_GROUP_55
  1

  0
LINE
  5
28E
  8
0
  6
DASHED2
 62
   190
 10
1288.107814294044
 20
771.1139308287221
 30
0.0
 11
1290.399970239247
 21
758.114468488962
 31
0.0
  0
LINE
  5
28F
  8
0
  6
DASHED2
 62
   190
 10
1288.107814294044
 20
771.1139308287221
 30
0.0
 11
1286.532121889224
 21
770.8360937444546
 31
0.0
  0
LINE
  5
290
  8
0
  6
DASHED2
 62
   190
 10
1290.399970239247
 20
758.114468488962
 30
0.0
 11
1288.824277834427
 21
757.8366314046949
 31
0.0
  0
LINE
  5
291
  8
0
  6
DASHED2
 62
   190
 10
1286.532121889224
 20
770.8360937444546
 30
0.0
 11
1286.8316649957
 21
769.137300370509
 31
0.0
  0
LINE
  5
292
  8
0
  6
DASHED2
 62
   190
 10
1288.524734727952
 20
759.5354247786405
 30
0.0
 11
1288.824277834427
 21
757.8366314046949
 31
0.0
  0
LINE
  5
293
  8
0
  6
DASHED2
 62
   190
 10
1288.826717749585
 20
767.0368267312521
 30
0.0
 11
1279.766486421872
 21
765.4392634967163
 31
0.0
  0
LINE
  5
294
  8
0
  6
DASHED2
 62
   190
 10
1289.681066783705
 20
762.1915725864316
 30
0.0
 11
1280.620835455993
 21
760.5940093518963
 31
0.0
  0
LINE
  5
295
  8
0
  6
DASHED2
 62
   190
 10
1288.732947733644
 20
767.5686229178783
 30
0.0
 11
1279.672716405932
 21
765.971059683343
 31
0.0
  0
LINE
  5
296
  8
0
  6
DASHED2
 62
   190
 10
1289.774836799646
 20
761.6597763998053
 30
0.0
 11
1280.714605471933
 21
760.0622131652696
 31
0.0
  0
LINE
  5
297
  8
0
 62
   190
 10
1279.347126072807
 20
767.8175742202408
 30
0.0
 11
1286.8316649957
 21
769.137300370509
 31
0.0
  0
LINE
  5
298
  8
0
 62
   190
 10
1279.347126072807
 20
767.8175742202408
 30
0.0
 11
1281.040195805059
 21
758.2156986283713
 31
0.0
  0
LINE
  5
299
  8
0
 62
   190
 10
1281.040195805059
 20
758.2156986283713
 30
0.0
 11
1288.524734727952
 21
759.5354247786405
 31
0.0
  0
ENDBLK
  5
F6
  8
0
  0
BLOCK
  8
0
  2
DC_GROUP_56
 70
     0
 10
0.0
 20
0.0
 30
0.0
  3
DC_GROUP_56
  1

  0
LINE
  5
29A
  8
LAYER0010
  6
DASHED2
 62
   190
 10
1204.111626788834
 20
767.3712867644632
 30
0.0
 11
1286.087024149571
 21
781.8257610734569
 31
0.0
  0
LINE
  5
29B
  8
LAYER0010
  6
DASHED2
 62
   190
 10
1204.320004602064
 20
766.1895174608568
 30
0.0
 11
1286.098440412168
 21
780.6092621343097
 31
0.0
  0
ARC
  5
29C
  8
LAYER0010
  6
DASHED2
 62
   190
 10
1286.578448492367
 20
779.0387551324317
 30
0.0
 40
2.83
 50
9.999999999997632
 51
99.99999999999764
  0
ARC
  5
29D
  8
LAYER0010
  6
DASHED2
 62
   190
 10
1286.416216577299
 20
778.8070639462973
 30
0.0
 40
1.830000000000001
 50
9.99999999999765
 51
99.99999999999764
  0
LINE
  5
29E
  8
LAYER0010
  6
DASHED2
 62
   190
 10
1291.305104577932
 20
768.5298768740828
 30
0.0
 11
1290.123335274317
 21
768.3214990608823
 31
0.0
  0
LINE
  5
29F
  8
LAYER0010
  6
DASHED2
 62
   190
 10
1292.694289999265
 20
760.651414849987
 30
0.0
 11
1291.512520695651
 21
760.4430370367865
 31
0.0
  0
ARC
  5
2A0
  8
LAYER0010
  6
DASHED2
 62
   190
 10
1204.620415949398
 20
764.4858000481387
 30
0.0
 40
2.93
 50
99.99999999999764
 51
189.9999999999976
  0
ARC
  5
2A1
  8
LAYER0010
  6
DASHED2
 62
   190
 10
1204.620415949427
 20
764.4858000481455
 30
0.0
 40
1.730000000000001
 50
99.99999999999764
 51
189.9999999999976
  0
LINE
  5
2A2
  8
LAYER0010
  6
DASHED2
 62
   190
 10
1289.365454433394
 20
779.5301794752296
 30
0.0
 11
1293.041586354601
 21
758.6817993439623
 31
0.0
  0
LINE
  5
2A3
  8
LAYER0010
  6
DASHED2
 62
   190
 10
1288.218414765311
 20
779.1248401114277
 30
0.0
 11
1291.859817050986
 21
758.4734215307623
 31
0.0
  0
LINE
  5
2A4
  8
LAYER0010
  6
DASHED2
 62
   190
 10
1202.916698536715
 20
764.1853887007798
 30
0.0
 11
1206.575465640157
 21
743.4354893448109
 31
0.0
  0
LINE
  5
2A5
  8
LAYER0010
  6
DASHED2
 62
   190
 10
1201.734929233099
 20
763.9770108875774
 30
0.0
 11
1205.393696336541
 21
743.2271115316104
 31
0.0
  0
LINE
  5
2A6
  8
LAYER0010
 62
     3
 10
1295.265244724217
 20
752.9813306390876
 30
0.0
 11
1297.140645043019
 21
742.3454069065566
 31
0.0
  0
ARC
  5
2A7
  8
LAYER0010
 62
     3
 10
1295.958875739404
 20
742.1370290933566
 30
0.0
 40
1.200000000000045
 50
189.9999999999976
 51
369.9999999999977
  0
LINE
  5
2A8
  8
LAYER0010
 62
     3
 10
1295.265244724217
 20
752.9813306390876
 30
0.0
 11
1294.083475420602
 21
752.7729528258893
 31
0.0
  0
LINE
  5
2A9
  8
LAYER0010
 62
     3
 10
1205.917861000911
 20
730.1189899497582
 30
0.0
 11
1196.916718138377
 21
728.5318456058823
 31
0.0
  0
LINE
  5
2AA
  8
LAYER0010
 62
     3
 10
1205.739027420299
 20
731.3059686987032
 30
0.0
 11
1196.708340325177
 21
729.7136149094973
 31
0.0
  0
LINE
  5
2AB
  8
LAYER0010
 62
     3
 10
1196.916718138377
 20
728.5318456058836
 30
0.0
 11
1196.708340325177
 21
729.7136149094973
 31
0.0
  0
ARC
  5
2AC
  8
LAYER0010
 62
     3
 10
1205.438616072936
 20
733.009686111414
 30
0.0
 40
1.730000000000001
 50
279.9999999999955
 51
369.9999999999955
  0
ARC
  5
2AD
  8
LAYER0010
 62
     3
 10
1205.403862395017
 20
733.0340208986755
 30
0.0
 40
2.96
 50
279.9999999999955
 51
369.9999999999998
  0
LINE
  5
2AE
  8
LAYER0010
 62
     3
 10
1293.041586354601
 20
758.6817993439623
 30
0.0
 11
1295.958875739405
 21
742.1370290933566
 31
0.0
  0
LINE
  5
2AF
  8
LAYER0010
 62
     3
 10
1291.859817050986
 20
758.4734215307623
 30
0.0
 11
1294.77710643579
 21
741.928651280156
 31
0.0
  0
LINE
  5
2B0
  8
LAYER0010
 62
     3
 10
1206.575465640157
 20
743.4354893448109
 30
0.0
 11
1208.318893343933
 21
733.5480195045694
 31
0.0
  0
LINE
  5
2B1
  8
LAYER0010
 62
     3
 10
1205.393696336541
 20
743.2271115316104
 30
0.0
 11
1207.142333485646
 21
733.3100974587779
 31
0.0
  0
ENDBLK
  5
F9
  8
0
  0
BLOCK
  8
0
  2
DC_GROUP_57
 70
     0
 10
0.0
 20
0.0
 30
0.0
  3
DC_GROUP_57
  1

  0
LINE
  5
2B2
  8
LAYER0010
  6
DASHED2
 62
   190
 10
889.7019035621684
 20
711.9323695625209
 30
0.0
 11
807.7265062014318
 21
697.477895253524
 31
0.0
  0
LINE
  5
2B3
  8
LAYER0010
  6
DASHED2
 62
   190
 10
889.9102813753375
 20
710.750600258904
 30
0.0
 11
808.131845565235
 21
696.3308555854438
 31
0.0
  0
ARC
  5
2B4
  8
LAYER0010
  6
DASHED2
 62
   190
 10
808.2179305442302
 20
694.6908893124993
 30
0.0
 40
2.83
 50
100.0000000000024
 51
190.0000000000024
  0
ARC
  5
2B5
  8
LAYER0010
  6
DASHED2
 62
   190
 10
808.4496217303655
 20
694.5286573974314
 30
0.0
 40
1.830000000000001
 50
100.0000000000024
 51
190.0000000000024
  0
LINE
  5
2B6
  8
LAYER0010
  6
DASHED2
 62
   190
 10
807.3705747477462
 20
683.1991623685555
 30
0.0
 11
808.5523440513613
 21
683.407540181756
 31
0.0
  0
LINE
  5
2B7
  8
LAYER0010
  6
DASHED2
 62
   190
 10
808.7597601690819
 20
675.3207003444601
 30
0.0
 11
809.9415294726965
 21
675.5290781576601
 31
0.0
  0
ARC
  5
2B8
  8
LAYER0010
  6
DASHED2
 62
   190
 10
890.2106927227328
 20
709.0468828461968
 30
0.0
 40
2.93
 50
10.00000000000235
 51
100.0000000000024
  0
ARC
  5
2B9
  8
LAYER0010
  6
DASHED2
 62
   190
 10
890.2106927227023
 20
709.0468828461932
 30
0.0
 40
1.730000000000001
 50
10.00000000000236
 51
100.0000000000024
  0
LINE
  5
2BA
  8
LAYER0010
  6
DASHED2
 62
   190
 10
891.9144101354159
 20
709.3472941935557
 30
0.0
 11
895.5731772388585
 21
688.5973948375864
 31
0.0
  0
LINE
  5
2BB
  8
LAYER0010
  6
DASHED2
 62
   190
 10
893.0961794390319
 20
709.555672006754
 30
0.0
 11
896.754946542474
 21
688.8057726507874
 31
0.0
  0
LINE
  5
2BC
  8
LAYER0010
  6
DASHED2
 62
   190
 10
806.6474235423535
 20
694.210881232301
 30
0.0
 11
810.2888258280287
 21
673.5594626516355
 31
0.0
  0
LINE
  5
2BD
  8
LAYER0010
  6
DASHED2
 62
   190
 10
805.430924603205
 20
694.1994649697018
 30
0.0
 11
809.1070565244141
 21
673.351084838435
 31
0.0
  0
LINE
  5
2BE
  8
LAYER0010
 62
     3
 10
808.9671762868035
 20
667.2338605071601
 30
0.0
 11
810.8425766056058
 21
656.5979367746292
 31
0.0
  0
ARC
  5
2BF
  8
LAYER0010
 62
     3
 10
812.0243459092195
 20
656.8063145878292
 30
0.0
 40
1.200000000000045
 50
190.0000000000024
 51
370.0000000000023
  0
LINE
  5
2C0
  8
LAYER0010
 62
     3
 10
808.9671762868035
 20
667.2338605071601
 30
0.0
 11
810.1489455904167
 21
667.442238320362
 31
0.0
  0
LINE
  5
2C1
  8
LAYER0010
 62
     3
 10
900.7456344974457
 20
676.3088926543225
 30
0.0
 11
909.7467773599783
 21
677.8960369981984
 31
0.0
  0
LINE
  5
2C2
  8
LAYER0010
 62
     3
 10
900.5077124516561
 20
677.4854525126081
 30
0.0
 11
909.5383995467778
 21
679.0778063018134
 31
0.0
  0
LINE
  5
2C3
  8
LAYER0010
 62
     3
 10
909.7467773599778
 20
677.8960369981998
 30
0.0
 11
909.5383995467778
 21
679.0778063018134
 31
0.0
  0
ARC
  5
2C4
  8
LAYER0010
 62
     3
 10
900.2073011042926
 20
679.1891699253189
 30
0.0
 40
1.730000000000001
 50
190.0000000000046
 51
280.0000000000046
  0
ARC
  5
2C5
  8
LAYER0010
 62
     3
 10
900.2316358915505
 20
679.2239236032393
 30
0.0
 40
2.96
 50
190.0000000000001
 51
280.0000000000046
  0
LINE
  5
2C6
  8
LAYER0010
 62
     3
 10
895.5731772388585
 20
688.5973948375864
 30
0.0
 11
897.3166049426341
 21
678.709924997345
 31
0.0
  0
LINE
  5
2C7
  8
LAYER0010
 62
     3
 10
896.754946542474
 20
688.8057726507874
 30
0.0
 11
898.5035836915808
 21
678.888758577955
 31
0.0
  0
LINE
  5
2C8
  8
LAYER0010
 62
     3
 10
810.2888258280287
 20
673.5594626516355
 30
0.0
 11
813.2061152128341
 21
657.0146924010297
 31
0.0
  0
LINE
  5
2C9
  8
LAYER0010
 62
     3
 10
809.1070565244141
 20
673.351084838435
 30
0.0
 11
812.0243459092195
 21
656.8063145878292
 31
0.0
  0
ENDBLK
  5
FC
  8
0
  0
BLOCK
  8
0
  2
DA_IMAGEDIMGROUP_1
 70
     0
 10
0.0
 20
0.0
 30
0.0
  3
DA_IMAGEDIMGROUP_1
  1

  0
LINE
  5
2CA
  8
｡｡@@
 62
     4
 10
1111.761338629271
 20
-324.4864618343851
 30
0.0
 11
1575.956571305786
 21
-324.4864618343851
 31
0.0
  0
LINE
  5
2CB
  8
｡｡@@
 62
     4
 10
1410.775613526323
 20
842.9046422100126
 30
0.0
 11
1575.956571305786
 21
842.9046422100126
 31
0.0
  0
LINE
  5
2CC
  8
｡｡@@
 62
     4
 10
1563.956571305786
 20
-324.4864618343851
 30
0.0
 11
1563.956571305786
 21
842.9046422100126
 31
0.0
  0
INSERT
  5
2D3
  8
｡｡@@
 62
     4
  2
_OPEN30
 10
1563.956571305786
 20
-324.4864618343851
 30
0.0
 41
36.00003345389238
 42
35.99987128774157
 50
270.0
  0
INSERT
  5
2D4
  8
｡｡@@
 62
     4
  2
_OPEN30
 10
1563.956571305786
 20
842.9046422100126
 30
0.0
 41
36.00003345389238
 42
35.99987128774157
 50
90.0
  0
TEXT
  5
2D5
  8
｡｡@@
 62
    32
 10
1551.956571305786
 20
165.6090901878139
 30
0.0
 40
60.0
  1
1167
 50
90.0
 41
0.7572815533980576
  7
FDASTYLE0
 72
     5
 11
1551.956571305786
 21
352.8090901878137
 31
0.0
  0
ENDBLK
  5
FF
  8
0
  0
BLOCK
  8
0
  2
DA_IMAGEDIMGROUP_2
 70
     0
 10
0.0
 20
0.0
 30
0.0
  3
DA_IMAGEDIMGROUP_2
  1

  0
LINE
  5
2D6
  8
｡｡@@
 62
     4
 10
699.2135363552185
 20
650.6090270509141
 30
0.0
 11
699.2135363552185
 21
950.2546153432933
 31
0.0
  0
LINE
  5
2D7
  8
｡｡@@
 62
     4
 10
1399.775613526323
 20
853.9046422100126
 30
0.0
 11
1399.775613526323
 21
950.2546153432933
 31
0.0
  0
LINE
  5
2D8
  8
｡｡@@
 62
     4
 10
699.2135363552185
 20
938.2546153432933
 30
0.0
 11
1399.775613526323
 21
938.2546153432933
 31
0.0
  0
INSERT
  5
2D9
  8
｡｡@@
 62
     4
  2
_OPEN30
 10
699.2135363552185
 20
938.2546153432933
 30
0.0
 41
36.00003345389238
 42
35.99987128774157
 50
180.0
  0
INSERT
  5
2DA
  8
｡｡@@
 62
     4
  2
_OPEN30
 10
1399.775613526323
 20
938.2546153432933
 30
0.0
 41
36.00003345389238
 42
35.99987128774157
 50
360.0
  0
TEXT
  5
2DB
  8
｡｡@@
 62
     4
 10
999.0945749407707
 20
950.2546153432933
 30
0.0
 40
42.0
  1
700
 41
0.8000000000000005
  7
FDASTYLE0
 72
     5
 11
1099.894574940771
 21
950.2546153432933
 31
0.0
  0
ENDBLK
  5
102
  8
0
  0
BLOCK
  8
0
  2
DA_IMAGEDIMGROUP_3
 70
     0
 10
0.0
 20
0.0
 30
0.0
  3
DA_IMAGEDIMGROUP_3
  1

  0
LINE
  5
2DC
  8
｡｡@@
 62
     4
 10
697.1449504702031
 20
650.2530719093936
 30
0.0
 11
622.923961978091
 21
1071.181214578763
 31
0.0
  0
LINE
  5
2DD
  8
｡｡@@
 62
     4
 10
1397.676643147332
 20
853.895983423826
 30
0.0
 11
1337.157028326046
 21
1197.119774690047
 31
0.0
  0
LINE
  5
2DE
  8
｡｡@@
 62
     4
 10
625.0077401100941
 20
1059.363521542616
 30
0.0
 11
1339.24080645805
 21
1185.3020816539
 31
0.0
  0
INSERT
  5
2DF
  8
｡｡@@
 62
     4
  2
_OPEN30
 10
625.0077401100941
 20
1059.363521542616
 30
0.0
 41
36.00003345389238
 42
35.99987128774157
 50
190.0
  0
INSERT
  5
2E0
  8
｡｡@@
 62
     4
  2
_OPEN30
 10
1339.24080645805
 20
1185.3020816539
 30
0.0
 41
36.00003345389238
 42
35.99987128774157
 50
10.00000000000002
  0
TEXT
  5
2E1
  8
｡｡@@
 62
    32
 10
911.2024332165154
 20
1122.012487015486
 30
0.0
 40
60.0
  1
725
 50
10.00000000000004
 41
0.7564935064935067
  7
FDASTYLE0
 72
     5
 11
1048.878557087622
 21
1146.288502253323
 31
0.0
  0
ENDBLK
  5
105
  8
0
  0
BLOCK
  8
0
  2
DA_IMAGEDIMGROUP_4
 70
     0
 10
0.0
 20
0.0
 30
0.0
  3
DA_IMAGEDIMGROUP_4
  1

  0
LINE
  5
2E2
  8
｡｡@@
 62
     4
 10
712.204877569032
 20
639.7079974299049
 30
0.0
 11
777.817555362697
 21
651.2772828014593
 31
0.0
  0
LINE
  5
2E3
  8
｡｡@@
 62
     4
 10
765.9998623265506
 20
649.1935046694562
 30
0.0
 11
758.8273093226526
 21
689.871074120707
 31
0.0
  0
LINE
  5
2E4
  8
｡｡@@
 62
     4
 10
787.8749067251308
 20
525.1339630684583
 30
0.0
 11
765.9998623265506
 21
649.1935046694562
 31
0.0
  0
INSERT
  5
2E5
  8
｡｡@@
 62
     4
  2
_OPEN30
 10
765.9998623265506
 20
649.1935046694562
 30
0.0
 41
36.00003345389238
 42
35.99987128774157
 50
100.0
  0
LINE
  5
2E6
  8
｡｡@@
 62
     4
 10
748.4084186626367
 20
748.9595393014395
 30
0.0
 11
758.8273093226526
 21
689.871074120707
 31
0.0
  0
INSERT
  5
2E7
  8
｡｡@@
 62
     4
  2
_OPEN30
 10
758.8273093226526
 20
689.871074120707
 30
0.0
 41
36.00003345389238
 42
35.99987128774157
 50
280.0000000000001
  0
TEXT
  5
2E8
  8
｡｡@@
 62
     4
 10
773.973435556981
 20
534.8678779726016
 30
0.0
 40
41.99999999999998
  1
41
 50
100.0
 41
0.7999999999999993
  7
FDASTYLE0
 72
     5
 11
762.3042780177633
 21
601.0469589750219
 31
0.0
  0
ENDBLK
  5
108
  8
0
  0
BLOCK
  8
0
  2
DC_GROUP_58
 70
     0
 10
0.0
 20
0.0
 30
0.0
  3
DC_GROUP_58
  1

  0
LINE
  5
2E9
  8
0
  6
DASHED2
 62
   190
 10
1053.761338629267
 20
741.8759010165245
 30
0.0
 11
1052.308158672427
 21
741.8759010165245
 31
0.0
  0
ENDBLK
  5
10B
  8
0
  0
BLOCK
  8
0
  2
DA_IMAGEDIMGROUP_5
 70
     0
 10
0.0
 20
0.0
 30
0.0
  3
DA_IMAGEDIMGROUP_5
  1

  0
LINE
  5
2EA
  8
｡｡@@
 62
     4
 10
514.7145117513721
 20
741.8759010165245
 30
0.0
 11
1040.308158672427
 21
741.8759010165245
 31
0.0
  0
LINE
  5
2EB
  8
｡｡@@
 62
     4
 10
522.9038442832862
 20
648.2714018520388
 30
0.0
 11
727.8553862629989
 21
684.4098884408635
 31
0.0
  0
ARC
  5
2EC
  8
｡｡@@
 62
     4
 10
1053.761338629267
 20
741.8759010165245
 30
0.0
 40
527.0468268778951
 50
180.0
 51
189.9999999999998
  0
ARC
  5
2ED
  8
｡｡@@
 62
     4
 10
1053.761338629267
 20
741.8759010165245
 30
0.0
 40
527.0468268778951
 50
165.1901305049343
 51
180.0
  0
INSERT
  5
2EE
  8
｡｡@@
 62
     4
  2
_OPEN30
 10
526.7145117513722
 20
741.8759010165246
 30
0.0
 41
36.00003345389238
 42
35.99987128774157
 50
268.0432010481406
  0
ARC
  5
2EF
  8
｡｡@@
 62
     4
 10
1053.761338629267
 20
741.8759010165245
 30
0.0
 40
527.0468268778951
 50
189.9999999999998
 51
196.5226590797429
  0
INSERT
  5
2F0
  8
｡｡@@
 62
     4
  2
_OPEN30
 10
534.7215373194329
 20
650.3551799840421
 30
0.0
 41
36.00003345389238
 42
35.99987128774157
 50
101.956798951859
  0
TEXT
  5
2F1
  8
｡｡@@
 62
    32
 10
510.2013818400053
 20
742.1307389713173
 30
0.0
 40
60.0
  1
10°
 50
82.58463203164041
 41
0.7191358024691354
  7
FDASTYLE0
 72
     5
 11
528.2441906700543
 21
880.7615329873738
 31
0.0
  0
ENDBLK
  5
10E
  8
0
  0
BLOCK
  8
0
  2
DA_IMAGEDIMGROUP_6
 70
     0
 10
0.0
 20
0.0
 30
0.0
  3
DA_IMAGEDIMGROUP_6
  1

  0
LINE
  5
2F2
  8
｡｡@@
 62
     4
 10
1053.761338629266
 20
-336.4864618343851
 30
0.0
 11
1053.761338629266
 21
-449.6258662162246
 31
0.0
  0
LINE
  5
2F3
  8
｡｡@@
 62
     4
 10
1101.761338629271
 20
-336.4864618343851
 30
0.0
 11
1101.761338629271
 21
-449.6258662162246
 31
0.0
  0
LINE
  5
2F4
  8
｡｡@@
 62
     4
 10
1053.761338629266
 20
-437.6258662162246
 30
0.0
 11
1101.761338629271
 21
-437.6258662162246
 31
0.0
  0
LINE
  5
2F5
  8
｡｡@@
 62
     4
 10
927.7879786292659
 20
-437.6258662162246
 30
0.0
 11
1053.761338629266
 21
-437.6258662162246
 31
0.0
  0
INSERT
  5
2F6
  8
｡｡@@
 62
     4
  2
_OPEN30
 10
1053.761338629266
 20
-437.6258662162246
 30
0.0
 41
36.00003345389238
 42
35.99987128774157
 50
360.0
  0
LINE
  5
2F7
  8
｡｡@@
 62
     4
 10
1161.761338629271
 20
-437.6258662162246
 30
0.0
 11
1101.761338629271
 21
-437.6258662162246
 31
0.0
  0
INSERT
  5
2F8
  8
｡｡@@
 62
     4
  2
_OPEN30
 10
1101.761338629271
 20
-437.6258662162246
 30
0.0
 41
36.00003345389238
 42
35.99987128774157
 50
180.0
  0
TEXT
  5
2F9
  8
｡｡@@
 62
     4
 10
939.7879786292659
 20
-425.6258662162246
 30
0.0
 40
42.0
  1
48
 41
0.8000000000000005
  7
FDASTYLE0
 72
     5
 11
1006.987978629266
 21
-425.6258662162246
 31
0.0
  0
ENDBLK
  5
111
  8
0
  0
BLOCK
  8
0
  2
DA_IMAGEDIMGROUP_7
 70
     0
 10
0.0
 20
0.0
 30
0.0
  3
DA_IMAGEDIMGROUP_7
  1

  0
LINE
  5
2FA
  8
｡｡@@
 62
     4
 10
-1974.752376679523
 20
800.6156274058818
 30
0.0
 11
-1974.752376679523
 21
1245.038516405135
 31
0.0
  0
LINE
  5
2FB
  8
｡｡@@
 62
     4
 10
125.2476233177519
 20
800.6156274058818
 30
0.0
 11
125.2476233177519
 21
1245.038516405135
 31
0.0
  0
LINE
  5
2FC
  8
｡｡@@
 62
     4
 10
-1974.752376679523
 20
1233.038516405135
 30
0.0
 11
125.2476233177519
 21
1233.038516405135
 31
0.0
  0
INSERT
  5
2FD
  8
｡｡@@
 62
     4
  2
_OPEN30
 10
-1974.752376679523
 20
1233.038516405135
 30
0.0
 41
36.00003345389238
 42
35.99987128774157
 50
180.0
  0
INSERT
  5
2FE
  8
｡｡@@
 62
     4
  2
_OPEN30
 10
125.2476233177519
 20
1233.038516405135
 30
0.0
 41
36.00003345389238
 42
35.99987128774157
 50
360.0
  0
TEXT
  5
2FF
  8
｡｡@@
 62
    32
 10
-1018.352376680886
 20
1245.038516405135
 30
0.0
 40
60.0
  1
2100
 41
0.7572815533980585
  7
FDASTYLE0
 72
     5
 11
-831.1523766808857
 21
1245.038516405135
 31
0.0
  0
ENDBLK
  5
114
  8
0
  0
BLOCK
  8
0
  2
DA_IMAGEDIMGROUP_8
 70
     0
 10
0.0
 20
0.0
 30
0.0
  3
DA_IMAGEDIMGROUP_8
  1

  0
LINE
  5
300
  8
｡｡@@
 62
     4
 10
-1824.752376680259
 20
744.6135381656154
 30
0.0
 11
-1824.752376680259
 21
1094.054208273894
 31
0.0
  0
LINE
  5
301
  8
｡｡@@
 62
     4
 10
-24.75237668423722
 20
744.6135381656154
 30
0.0
 11
-24.75237668423722
 21
1094.054208273894
 31
0.0
  0
LINE
  5
302
  8
｡｡@@
 62
     4
 10
-1824.752376680259
 20
1082.054208273894
 30
0.0
 11
-24.75237668423722
 21
1082.054208273894
 31
0.0
  0
INSERT
  5
303
  8
｡｡@@
 62
     4
  2
_OPEN30
 10
-1824.752376680259
 20
1082.054208273894
 30
0.0
 41
36.00003345389238
 42
35.99987128774157
 50
180.0
  0
INSERT
  5
304
  8
｡｡@@
 62
     4
  2
_OPEN30
 10
-24.75237668423722
 20
1082.054208273894
 30
0.0
 41
36.00003345389238
 42
35.99987128774157
 50
360.0
  0
TEXT
  5
305
  8
｡｡@@
 62
    32
 10
-1255.352376682248
 20
1094.054208273894
 30
0.0
 40
60.0
  1
1800(ボルト固定ピッチ)
 41
0.6853233830845771
  7
FDASTYLE0
 72
     5
 11
-594.1523766822483
 21
1094.054208273894
 31
0.0
  0
ENDBLK
  5
117
  8
0
  0
BLOCK
  8
0
  2
DA_IMAGEDIMGROUP_9
 70
     0
 10
0.0
 20
0.0
 30
0.0
  3
DA_IMAGEDIMGROUP_9
  1

  0
LINE
  5
306
  8
｡｡@@
 62
     4
 10
-56.75237668361058
 20
-336.4864618343851
 30
0.0
 11
-56.75237668361058
 21
-461.3580599144079
 31
0.0
  0
LINE
  5
307
  8
｡｡@@
 62
     4
 10
13.24762331643854
 20
-336.4864618343851
 30
0.0
 11
13.24762331643854
 21
-461.3580599144079
 31
0.0
  0
LINE
  5
308
  8
｡｡@@
 62
     4
 10
-56.75237668361058
 20
-449.3580599144079
 30
0.0
 11
13.24762331643854
 21
-449.3580599144079
 31
0.0
  0
LINE
  5
309
  8
｡｡@@
 62
     4
 10
-182.7257366836106
 20
-449.3580599144079
 30
0.0
 11
-56.75237668361058
 21
-449.3580599144079
 31
0.0
  0
INSERT
  5
30A
  8
｡｡@@
 62
     4
  2
_OPEN30
 10
-56.75237668361058
 20
-449.3580599144079
 30
0.0
 41
36.00003345389238
 42
35.99987128774157
 50
360.0
  0
LINE
  5
30B
  8
｡｡@@
 62
     4
 10
73.24762331643854
 20
-449.3580599144079
 30
0.0
 11
13.24762331643854
 21
-449.3580599144079
 31
0.0
  0
INSERT
  5
30C
  8
｡｡@@
 62
     4
  2
_OPEN30
 10
13.24762331643854
 20
-449.3580599144079
 30
0.0
 41
36.00003345389238
 42
35.99987128774157
 50
180.0
  0
TEXT
  5
30D
  8
｡｡@@
 62
     4
 10
-170.7257366836106
 20
-437.3580599144079
 30
0.0
 40
42.0
  1
70
 41
0.8000000000000002
  7
FDASTYLE0
 72
     5
 11
-103.5257366836106
 21
-437.3580599144079
 31
0.0
  0
ENDBLK
  5
11A
  8
0
  0
BLOCK
  8
0
  2
DA_IMAGEDIMGROUP_10
 70
     0
 10
0.0
 20
0.0
 30
0.0
  3
DA_IMAGEDIMGROUP_10
  1

  0
LINE
  5
30E
  8
｡｡@@
 62
     4
 10
8.205574884996736
 20
162.0135381656149
 30
0.0
 11
170.1740370898717
 21
162.0135381656149
 31
0.0
  0
LINE
  5
30F
  8
｡｡@@
 62
     4
 10
8.205574884996736
 20
202.0135381656149
 30
0.0
 11
170.1740370898717
 21
202.0135381656149
 31
0.0
  0
LINE
  5
310
  8
｡｡@@
 62
     4
 10
158.1740370898717
 20
162.0135381656149
 30
0.0
 11
158.1740370898717
 21
202.0135381656149
 31
0.0
  0
LINE
  5
311
  8
｡｡@@
 62
     4
 10
8.205574884996736
 20
242.0135381656149
 30
0.0
 11
170.1740370898717
 21
242.0135381656149
 31
0.0
  0
LINE
  5
312
  8
｡｡@@
 62
     4
 10
158.1740370898717
 20
-602.3598218343852
 30
0.0
 11
158.1740370898717
 21
162.0135381656149
 31
0.0
  0
INSERT
  5
313
  8
｡｡@@
 62
     4
  2
_OPEN30
 10
158.1740370898717
 20
162.0135381656149
 30
0.0
 41
36.00003345389238
 42
35.99987128774157
 50
90.0
  0
LINE
  5
314
  8
｡｡@@
 62
     4
 10
158.1740370898717
 20
367.9868981656149
 30
0.0
 11
158.1740370898717
 21
242.0135381656149
 31
0.0
  0
INSERT
  5
315
  8
｡｡@@
 62
     4
  2
_OPEN30
 10
158.1740370898717
 20
242.0135381656149
 30
0.0
 41
36.00003345389238
 42
35.99987128774157
 50
270.0
  0
LINE
  5
316
  8
｡｡@@
 62
     4
 10
158.1740370898717
 20
202.0135381656149
 30
0.0
 11
158.1740370898717
 21
242.0135381656149
 31
0.0
  0
INSERT
  5
31C
  8
｡｡@@
 62
     4
  2
_DOT
 10
158.1740370898717
 20
202.0135381656149
 30
0.0
 41
30.0
 42
30.0
 50
270.0
  0
TEXT
  5
31D
  8
｡｡@@
 62
     4
 10
146.1740370898717
 20
-590.3598218343852
 30
0.0
 40
42.0
  1
タンク位置（低）で３段切り替え　ピッチ40
 50
90.0
 41
0.6774193548387099
  7
FDASTYLE0
 72
     5
 11
146.1740370898717
 21
115.2401781656149
 31
0.0
  0
TEXT
  5
31E
  8
｡｡@@
 62
     4
 10
146.1740370898717
 20
288.786898165615
 30
0.0
 40
42.0
  1
40
 50
90.0
 41
0.7999999999999998
  7
FDASTYLE0
 72
     5
 11
146.1740370898717
 21
355.986898165615
 31
0.0
  0
ENDBLK
  5
11D
  8
0
  0
BLOCK
  8
0
  2
DC_GROUP_59
 70
     0
 10
0.0
 20
0.0
 30
0.0
  3
DC_GROUP_59
  1

  0
LINE
  5
31F
  8
0
  6
DASHED2
 62
     4
 10
1294.487042626171
 20
759.698242242988
 30
0.0
 11
1297.942981470114
 21
760.3076175048534
 31
0.0
  0
LINE
  5
320
  8
0
  6
DASHED2
 62
     4
 10
1293.98576351557
 20
762.5411373494962
 30
0.0
 11
1297.441702359512
 21
763.1505126113616
 31
0.0
  0
LINE
  5
321
  8
0
  6
DASHED2
 62
     4
 10
1298.17563408292
 20
761.8142825069099
 30
0.0
 11
1296.679959150351
 21
770.296676560042
 31
0.0
  0
LINE
  5
322
  8
0
  6
DASHED2
 62
     4
 10
1292.490088583002
 20
771.0235314026284
 30
0.0
 11
1295.946027426944
 21
771.6329066644939
 31
0.0
  0
LINE
  5
323
  8
0
  6
DASHED2
 62
     4
 10
1292.991367693603
 20
768.1806362961202
 30
0.0
 11
1296.447306537546
 21
768.7900115579857
 31
0.0
  0
ARC
  5
324
  8
0
  6
DASHED2
 62
     4
 10
1295.843623949963
 20
761.4030862011841
 30
0.0
 40
2.367985148191038
 50
332.4439335551098
 51
407.5560664448902
  0
ARC
  5
325
  8
0
  6
DASHED2
 62
     4
 10
1294.347949017395
 20
769.8854802543162
 30
0.0
 40
2.367985148191038
 50
332.4439335551098
 51
407.5560664448902
  0
ARC
  5
326
  8
0
  6
DASHED2
 62
     4
 10
1288.960290879821
 20
764.5624298127718
 30
0.0
 40
8.598130661456638
 50
350.5485324368353
 51
389.4514675631647
  0
LINE
  5
327
  8
0
  6
DASHED2
 62
     4
 10
1290.827572089349
 20
771.2380981948675
 30
0.0
 11
1292.403264494168
 21
771.5159352791345
 31
0.0
  0
LINE
  5
328
  8
0
  6
DASHED2
 62
     4
 10
1292.998174310185
 20
758.9280012822148
 30
0.0
 11
1290.827572089349
 21
771.2380981948675
 31
0.0
  0
LINE
  5
329
  8
0
  6
DASHED2
 62
     4
 10
1292.998174310185
 20
758.9280012822148
 30
0.0
 11
1294.573866715005
 21
759.2058383664819
 31
0.0
  0
LINE
  5
32A
  8
0
  6
DASHED2
 62
     4
 10
1294.573866715005
 20
759.2058383664819
 30
0.0
 11
1292.403264494168
 21
771.5159352791345
 31
0.0
  0
LINE
  5
32B
  8
0
  6
DASHED2
 62
     4
 10
1292.433817732768
 20
762.1286264795044
 30
0.0
 11
1279.237393842404
 21
759.8017408987676
 31
0.0
  0
LINE
  5
32C
  8
0
  6
DASHED2
 62
     4
 10
1291.739831032336
 20
762.0062578999656
 30
0.0
 11
1290.724963001888
 21
762.3756396547573
 31
0.0
  0
LINE
  5
32D
  8
0
  6
DASHED2
 62
     4
 10
1290.724963001888
 20
762.3756396547573
 30
0.0
 11
1278.611827639837
 21
760.2397670694541
 31
0.0
  0
LINE
  5
32E
  8
0
  6
DASHED2
 62
     4
 10
1279.237393842404
 20
759.8017408987676
 30
0.0
 11
1278.195504776403
 21
765.7105874168408
 31
0.0
  0
LINE
  5
32F
  8
0
  6
DASHED2
 62
     4
 10
1290.818733017828
 20
761.8438434681307
 30
0.0
 11
1289.776843951826
 21
767.7526899862039
 31
0.0
  0
LINE
  5
330
  8
0
  6
DASHED2
 62
     4
 10
1291.391928666766
 20
768.0374729975777
 30
0.0
 11
1278.195504776403
 21
765.7105874168408
 31
0.0
  0
LINE
  5
331
  8
0
  6
DASHED2
 62
     4
 10
1290.697941966335
 20
767.9151044180389
 30
0.0
 11
1289.870613967766
 21
767.2208937995774
 31
0.0
  0
LINE
  5
332
  8
0
  6
DASHED2
 62
     4
 10
1289.870613967766
 20
767.2208937995774
 30
0.0
 11
1277.757478605716
 21
765.0850212142741
 31
0.0
  0
LINE
  5
333
  8
0
  6
DASHED2
 62
     4
 10
1278.078937911725
 20
760.6129004741129
 30
0.0
 11
1277.384345201057
 21
764.5521314861617
 31
0.0
  0
LINE
  5
334
  8
0
  6
DASHED2
 62
     4
 10
1279.237393842404
 20
759.8017408987676
 30
0.0
 11
1278.078937911725
 21
760.6129004741129
 31
0.0
  0
LINE
  5
335
  8
0
  6
DASHED2
 62
     4
 10
1278.195504776403
 20
765.7105874168408
 30
0.0
 11
1277.384345201057
 21
764.5521314861617
 31
0.0
  0
ENDBLK
  5
120
  8
0
  0
BLOCK
  8
0
  2
DC_GROUP_60
 70
     0
 10
0.0
 20
0.0
 30
0.0
  3
DC_GROUP_60
  1

  0
LINE
  5
336
  8
0
  6
DASHED2
 62
     4
 10
805.4909980320082
 20
684.6447388520597
 30
0.0
 11
802.0350591880658
 21
684.0353635901943
 31
0.0
  0
LINE
  5
337
  8
0
  6
DASHED2
 62
     4
 10
805.9922771426097
 20
681.8018437455515
 30
0.0
 11
802.5363382986673
 21
681.1924684836861
 31
0.0
  0
LINE
  5
338
  8
0
  6
DASHED2
 62
     4
 10
801.8024065752601
 20
682.5286985881379
 30
0.0
 11
803.2980815078283
 21
674.0463045350057
 31
0.0
  0
LINE
  5
339
  8
0
  6
DASHED2
 62
     4
 10
807.487952075178
 20
673.3194496924193
 30
0.0
 11
804.0320132312355
 21
672.7100744305539
 31
0.0
  0
LINE
  5
33A
  8
0
  6
DASHED2
 62
     4
 10
806.9866729645764
 20
676.1623447989275
 30
0.0
 11
803.5307341206341
 21
675.5529695370619
 31
0.0
  0
ARC
  5
33B
  8
0
  6
DASHED2
 62
     4
 10
804.1344167082164
 20
682.9398948938637
 30
0.0
 40
2.367985148190993
 50
152.443933555109
 51
227.556066444891
  0
ARC
  5
33C
  8
0
  6
DASHED2
 62
     4
 10
805.6300916407846
 20
674.4575008407314
 30
0.0
 40
2.367985148190993
 50
152.443933555109
 51
227.556066444891
  0
ARC
  5
33D
  8
0
  6
DASHED2
 62
     4
 10
811.0177497783587
 20
679.7805512822758
 30
0.0
 40
8.598130661456583
 50
170.5485324368352
 51
209.4514675631649
  0
LINE
  5
33E
  8
0
  6
DASHED2
 62
     4
 10
809.150468568831
 20
673.1048829001803
 30
0.0
 11
807.5747761640114
 21
672.8270458159132
 31
0.0
  0
LINE
  5
33F
  8
0
  6
DASHED2
 62
     4
 10
806.9798663479943
 20
685.4149798128329
 30
0.0
 11
809.150468568831
 21
673.1048829001803
 31
0.0
  0
LINE
  5
340
  8
0
  6
DASHED2
 62
     4
 10
806.9798663479943
 20
685.4149798128329
 30
0.0
 11
805.4041739431748
 21
685.1371427285658
 31
0.0
  0
LINE
  5
341
  8
0
  6
DASHED2
 62
     4
 10
805.4041739431748
 20
685.1371427285658
 30
0.0
 11
807.5747761640114
 21
672.8270458159132
 31
0.0
  0
LINE
  5
342
  8
0
  6
DASHED2
 62
     4
 10
807.5442229254119
 20
682.2143546155432
 30
0.0
 11
820.7406468157755
 21
684.5412401962801
 31
0.0
  0
LINE
  5
343
  8
0
  6
DASHED2
 62
     4
 10
808.2382096258432
 20
682.3367231950822
 30
0.0
 11
809.253077656292
 21
681.9673414402905
 31
0.0
  0
LINE
  5
344
  8
0
  6
DASHED2
 62
     4
 10
809.253077656292
 20
681.9673414402905
 30
0.0
 11
821.3662130183421
 21
684.1032140255936
 31
0.0
  0
LINE
  5
345
  8
0
  6
DASHED2
 62
     4
 10
820.7406468157755
 20
684.5412401962801
 30
0.0
 11
821.782535881777
 21
678.6323936782069
 31
0.0
  0
LINE
  5
346
  8
0
  6
DASHED2
 62
     4
 10
809.1593076403518
 20
682.499137626917
 30
0.0
 11
810.2011967063535
 21
676.5902911088438
 31
0.0
  0
LINE
  5
347
  8
0
  6
DASHED2
 62
     4
 10
808.5861119914134
 20
676.30550809747
 30
0.0
 11
821.782535881777
 21
678.6323936782069
 31
0.0
  0
LINE
  5
348
  8
0
  6
DASHED2
 62
     4
 10
809.2800986918447
 20
676.427876677009
 30
0.0
 11
810.1074266904133
 21
677.1220872954702
 31
0.0
  0
LINE
  5
349
  8
0
  6
DASHED2
 62
     4
 10
810.1074266904133
 20
677.1220872954702
 30
0.0
 11
822.2205620524634
 21
679.2579598807736
 31
0.0
  0
LINE
  5
34A
  8
0
  6
DASHED2
 62
     4
 10
821.8991027464546
 20
683.7300806209348
 30
0.0
 11
822.5936954571223
 21
679.790849608886
 31
0.0
  0
LINE
  5
34B
  8
0
  6
DASHED2
 62
     4
 10
820.7406468157755
 20
684.5412401962801
 30
0.0
 11
821.8991027464546
 21
683.7300806209348
 31
0.0
  0
LINE
  5
34C
  8
0
  6
DASHED2
 62
     4
 10
821.782535881777
 20
678.6323936782069
 30
0.0
 11
822.5936954571223
 21
679.790849608886
 31
0.0
  0
ENDBLK
  5
123
  8
0
  0
BLOCK
  8
0
  2
DC_GROUP_61
 70
     0
 10
0.0
 20
0.0
 30
0.0
  3
DC_GROUP_61
  1

  0
LINE
  5
34D
  8
LAYER0015
 62
     4
 10
83.82942934012374
 20
718.0283169227766
 30
0.0
 11
254.4692161497366
 21
896.9919957718829
 31
0.0
  0
CIRCLE
  5
34E
  8
LAYER0015
 62
     4
 10
283.4523801597958
 20
927.3889726604816
 30
0.0
 40
42.0
  0
TEXT
  5
34F
  8
LAYER0015
 62
     4
 10
259.4523801597958
 20
897.3889726604816
 30
0.0
 40
60.0
  1
1
 41
0.8
  7
FDASTYLE0
 72
     5
 11
307.4523801597958
 21
897.3889726604816
 31
0.0
  0
ENDBLK
  5
126
  8
0
  0
BLOCK
  8
0
  2
DC_GROUP_62
 70
     0
 10
0.0
 20
0.0
 30
0.0
  3
DC_GROUP_62
  1

  0
LINE
  5
350
  8
LAYER0015
 62
     4
 10
1297.827049169318
 20
765.6578985091024
 30
0.0
 11
1432.353824141912
 21
677.8928868989218
 31
0.0
  0
CIRCLE
  5
351
  8
LAYER0015
 62
     4
 10
1467.529860547974
 20
654.94410778631
 30
0.0
 40
42.0
  0
TEXT
  5
352
  8
LAYER0015
 62
     4
 10
1443.529860547974
 20
624.94410778631
 30
0.0
 40
60.0
  1
3
 41
0.8
  7
FDASTYLE0
 72
     5
 11
1491.529860547974
 21
624.94410778631
 31
0.0
  0
ENDBLK
  5
129
  8
0
  0
BLOCK
  8
0
  2
DC_GROUP_63
 70
     0
 10
0.0
 20
0.0
 30
0.0
  3
DC_GROUP_63
  1

  0
LINE
  5
353
  8
LAYER0015
 62
     4
 10
-44.68795160008733
 20
30.92129902837729
 30
0.0
 11
-225.6834897383376
 21
170.7814875897525
 31
0.0
  0
CIRCLE
  5
354
  8
LAYER0015
 62
     4
 10
-258.9174597968086
 20
196.4622826349347
 30
0.0
 40
42.0
  0
TEXT
  5
355
  8
LAYER0015
 62
     4
 10
-282.9174597968086
 20
166.4622826349347
 30
0.0
 40
60.0
  1
2
 41
0.8
  7
FDASTYLE0
 72
     5
 11
-234.9174597968086
 21
166.4622826349347
 31
0.0
  0
ENDBLK
  5
12C
  8
0
  0
BLOCK
  8
0
  2
DC_GROUP_64
 70
     0
 10
0.0
 20
0.0
 30
0.0
  3
DC_GROUP_64
  1

  0
LINE
  5
356
  8
0
 62
     3
 10
324.8674736831066
 20
-1343.153287817271
 30
0.0
 11
347.2674736831066
 21
-1343.153287817272
 31
0.0
  0
LINE
  5
357
  8
0
 62
     3
 10
347.2674736831066
 20
-1343.153287817272
 30
0.0
 11
347.7986628261842
 21
-1342.65426152803
 31
0.0
  0
LINE
  5
358
  8
0
 62
     3
 10
324.8674736831066
 20
-1343.153287817271
 30
0.0
 11
324.3362845400292
 21
-1342.65426152803
 31
0.0
  0
LINE
  5
359
  8
0
 62
     3
 10
348.7674736831066
 20
-1327.153287817272
 30
0.0
 11
323.3674736831068
 21
-1327.153287817271
 31
0.0
  0
LINE
  5
35A
  8
0
 62
     3
 10
323.3674736831068
 20
-1327.153287817271
 30
0.0
 11
324.3362845400292
 21
-1342.65426152803
 31
0.0
  0
LINE
  5
35B
  8
0
 62
     3
 10
348.7674736831066
 20
-1327.153287817272
 30
0.0
 11
347.7986628261842
 21
-1342.65426152803
 31
0.0
  0
LINE
  5
35C
  8
0
 62
     3
 10
429.0674736831071
 20
-1203.153287817272
 30
0.0
 11
453.8674736831069
 21
-1203.153287817272
 31
0.0
  0
LINE
  5
35D
  8
0
 62
     3
 10
428.7674736831071
 20
-1202.853287817272
 30
0.0
 11
429.0674736831071
 21
-1203.153287817272
 31
0.0
  0
LINE
  5
35E
  8
0
 62
     3
 10
454.1674736831069
 20
-1202.853287817272
 30
0.0
 11
453.8674736831069
 21
-1203.153287817272
 31
0.0
  0
LINE
  5
35F
  8
0
 62
     3
 10
428.7674736218768
 20
-1202.853287817272
 30
0.0
 11
454.1674736831069
 21
-1202.853287817272
 31
0.0
  0
LINE
  5
360
  8
0
 62
     3
 10
323.3674736831072
 20
-1148.553287817271
 30
0.0
 11
323.3674736831068
 21
-1327.153287817271
 31
0.0
  0
LINE
  5
361
  8
0
 62
     3
 10
348.7674736831073
 20
-1148.553287817272
 30
0.0
 11
348.7674736831066
 21
-1327.153287817272
 31
0.0
  0
ARC
  5
362
  8
0
 62
     3
 10
388.7674736831073
 20
-1148.553287817272
 30
0.0
 40
40.0
 50
359.9999999999998
 51
539.9999999999998
  0
ARC
  5
363
  8
0
 62
     3
 10
388.7674736831073
 20
-1148.553287817272
 30
0.0
 40
65.39999999999999
 50
359.9999999999998
 51
539.9999999999998
  0
LINE
  5
364
  8
0
 62
     3
 10
428.7674736831073
 20
-1148.553287817272
 30
0.0
 11
428.7674736831071
 21
-1202.853287817272
 31
0.0
  0
LINE
  5
365
  8
0
 62
     3
 10
454.1674736831071
 20
-1148.553287817272
 30
0.0
 11
454.1674736831069
 21
-1202.853287817272
 31
0.0
  0
LINE
  5
366
  8
0
 62
     4
 10
348.0036078281494
 20
-1328.153287817272
 30
0.0
 11
347.0661078281494
 21
-1343.153287817272
 31
0.0
  0
LINE
  5
367
  8
0
 62
     4
 10
324.131339538064
 20
-1328.153287817271
 30
0.0
 11
325.068839538064
 21
-1343.153287817271
 31
0.0
  0
LINE
  5
368
  8
0
 62
     4
 10
324.131339538064
 20
-1328.153287817271
 30
0.0
 11
348.0036078281494
 21
-1328.153287817272
 31
0.0
  0
LINE
  5
369
  8
0
 62
     4
 10
323.3674736831068
 20
-1327.153287817271
 30
0.0
 11
324.131339538064
 21
-1328.153287817271
 31
0.0
  0
LINE
  5
36A
  8
0
 62
     4
 10
348.0036078281494
 20
-1328.153287817272
 30
0.0
 11
348.7674736831066
 21
-1327.153287817272
 31
0.0
  0
LINE
  5
36B
  8
0
  6
CENTER
 62
     4
 10
441.4674736831071
 20
-1199.362570856602
 30
0.0
 11
441.4674736831071
 21
-1207.112058975417
 31
0.0
  0
LINE
  5
36C
  8
0
  6
CENTER
 62
     4
 10
336.0674736831068
 20
-1303.896219402083
 30
0.0
 11
336.0674736831065
 21
-1348.673224189007
 31
0.0
  0
ENDBLK
  5
12F
  8
0
  0
BLOCK
  8
0
  2
DA_IMAGEDIMGROUP_11
 70
     0
 10
0.0
 20
0.0
 30
0.0
  3
DA_IMAGEDIMGROUP_11
  1

  0
LINE
  5
36D
  8
LAYER0015
 62
     4
 10
312.8674736831066
 20
-1343.153287817271
 30
0.0
 11
136.5697926711669
 21
-1343.153287817271
 31
0.0
  0
LINE
  5
36E
  8
LAYER0015
 62
     4
 10
376.7674736831073
 20
-1083.153287817272
 30
0.0
 11
136.5697926711669
 21
-1083.153287817272
 31
0.0
  0
LINE
  5
36F
  8
LAYER0015
 62
     4
 10
148.5697926711669
 20
-1083.153287817272
 30
0.0
 11
148.5697926711669
 21
-1343.153287817271
 31
0.0
  0
INSERT
  5
370
  8
LAYER0015
 62
     4
  2
_OPEN30
 10
148.5697926711669
 20
-1083.153287817272
 30
0.0
 41
36.00003345389238
 42
35.99987128774157
 50
90.0
  0
INSERT
  5
371
  8
LAYER0015
 62
     4
  2
_OPEN30
 10
148.5697926711669
 20
-1343.153287817271
 30
0.0
 41
36.00003345389238
 42
35.99987128774157
 50
270.0
  0
TEXT
  5
372
  8
LAYER0015
 62
     4
 10
136.5697926711669
 20
-1256.353287817272
 30
0.0
 40
36.0
  1
260
 50
90.0
 41
0.8000000000000008
  7
FDASTYLE0
 72
     5
 11
136.5697926711669
 21
-1169.953287817272
 31
0.0
  0
ENDBLK
  5
132
  8
0
  0
BLOCK
  8
0
  2
DA_IMAGEDIMGROUP_12
 70
     0
 10
0.0
 20
0.0
 30
0.0
  3
DA_IMAGEDIMGROUP_12
  1

  0
LINE
  5
373
  8
LAYER0015
 62
     4
 10
400.7674736831073
 20
-1083.153287817272
 30
0.0
 11
653.8665621986499
 21
-1083.153287817272
 31
0.0
  0
LINE
  5
374
  8
LAYER0015
 62
     4
 10
465.8674736831069
 20
-1203.153287817272
 30
0.0
 11
653.8665621986499
 21
-1203.153287817272
 31
0.0
  0
LINE
  5
375
  8
LAYER0015
 62
     4
 10
641.8665621986499
 20
-1203.153287817272
 30
0.0
 11
641.8665621986499
 21
-1083.153287817272
 31
0.0
  0
INSERT
  5
376
  8
LAYER0015
 62
     4
  2
_OPEN30
 10
641.8665621986499
 20
-1203.153287817272
 30
0.0
 41
36.00003345389238
 42
35.99987128774157
 50
270.0
  0
INSERT
  5
377
  8
LAYER0015
 62
     4
  2
_OPEN30
 10
641.8665621986499
 20
-1083.153287817272
 30
0.0
 41
36.00003345389238
 42
35.99987128774157
 50
90.0
  0
TEXT
  5
378
  8
LAYER0015
 62
     4
 10
629.8665621986499
 20
-1186.353287817272
 30
0.0
 40
36.0
  1
120
 50
90.0
 41
0.8000000000000008
  7
FDASTYLE0
 72
     5
 11
629.8665621986499
 21
-1099.953287817272
 31
0.0
  0
ENDBLK
  5
135
  8
0
  0
BLOCK
  8
0
  2
DA_IMAGEDIMGROUP_13
 70
     0
 10
0.0
 20
0.0
 30
0.0
  3
DA_IMAGEDIMGROUP_13
  1

  0
LINE
  5
379
  8
LAYER0015
 62
     4
 10
428.7674736831073
 20
-1136.553287817272
 30
0.0
 11
428.7674736831073
 21
-969.5855834136914
 31
0.0
  0
LINE
  5
37A
  8
LAYER0015
 62
     4
 10
348.7674736831073
 20
-1136.553287817272
 30
0.0
 11
348.7674736831073
 21
-969.5855834136914
 31
0.0
  0
LINE
  5
37B
  8
LAYER0015
 62
     4
 10
348.7674736831073
 20
-981.5855834136914
 30
0.0
 11
428.7674736831073
 21
-981.5855834136914
 31
0.0
  0
INSERT
  5
37C
  8
LAYER0015
 62
     4
  2
_OPEN30
 10
348.7674736831073
 20
-981.5855834136914
 30
0.0
 41
36.00003345389238
 42
35.99987128774157
 50
180.0
  0
INSERT
  5
37D
  8
LAYER0015
 62
     4
  2
_OPEN30
 10
428.7674736831073
 20
-981.5855834136914
 30
0.0
 41
36.00003345389238
 42
35.99987128774157
 50
360.0
  0
TEXT
  5
37E
  8
LAYER0015
 62
     4
 10
359.9674736831072
 20
-969.5855834136914
 30
0.0
 40
36.0
  1
80
 41
0.8000000000000003
  7
FDASTYLE0
 72
     5
 11
417.5674736831073
 21
-969.5855834136914
 31
0.0
  0
ENDBLK
  5
138
  8
0
  0
BLOCK
  8
0
  2
DA_IMAGEDIMGROUP_14
 70
     0
 10
0.0
 20
0.0
 30
0.0
  3
DA_IMAGEDIMGROUP_14
  1

  0
LINE
  5
37F
  8
LAYER0015
 62
     4
 10
348.7674736831066
 20
-1339.153287817272
 30
0.0
 11
348.7674736831066
 21
-1438.226374156218
 31
0.0
  0
LINE
  5
380
  8
LAYER0015
 62
     4
 10
323.3674736831068
 20
-1339.153287817271
 30
0.0
 11
323.3674736831068
 21
-1438.226374156218
 31
0.0
  0
LINE
  5
381
  8
LAYER0015
 62
     4
 10
323.3674736831068
 20
-1426.226374156218
 30
0.0
 11
348.7674736831066
 21
-1426.226374156218
 31
0.0
  0
LINE
  5
382
  8
LAYER0015
 62
     4
 10
551.5408336831066
 20
-1426.226374156218
 30
0.0
 11
348.7674736831066
 21
-1426.226374156218
 31
0.0
  0
INSERT
  5
383
  8
LAYER0015
 62
     4
  2
_OPEN30
 10
348.7674736831066
 20
-1426.226374156218
 30
0.0
 41
36.00003345389238
 42
35.99987128774157
 50
180.0
  0
LINE
  5
384
  8
LAYER0015
 62
     4
 10
263.3674736831068
 20
-1426.226374156218
 30
0.0
 11
323.3674736831068
 21
-1426.226374156218
 31
0.0
  0
INSERT
  5
385
  8
LAYER0015
 62
     4
  2
_OPEN30
 10
323.3674736831068
 20
-1426.226374156218
 30
0.0
 41
36.00003345389238
 42
35.99987128774157
 50
360.0
  0
TEXT
  5
386
  8
LAYER0015
 62
     4
 10
395.5408336831066
 20
-1414.226374156218
 30
0.0
 40
36.0
  1
φ25.4
 41
0.7692307692307693
  7
FDASTYLE0
 72
     5
 11
539.5408336831066
 21
-1414.226374156218
 31
0.0
  0
ENDBLK
  5
13B
  8
0
  0
BLOCK
  8
0
  2
DC_GROUP_65
 70
     0
 10
0.0
 20
0.0
 30
0.0
  3
DC_GROUP_65
  1

  0
LINE
  5
387
  8
LAYER0015
 62
     4
 10
336.7561475409835
 20
-1198.599385245901
 30
0.0
 11
226.7352732791524
 21
-971.8364515543203
 31
0.0
  0
CIRCLE
  5
388
  8
LAYER0015
 62
     4
 10
208.4016393442623
 20
-934.0491803278683
 30
0.0
 40
42.0
  0
TEXT
  5
389
  8
LAYER0015
 62
     4
 10
184.4016393442623
 20
-964.0491803278683
 30
0.0
 40
60.0
  1
4
 41
0.8
  7
FDASTYLE0
 72
     5
 11
232.4016393442623
 21
-964.0491803278683
 31
0.0
  0
ENDBLK
  5
13E
  8
0
  0
BLOCK
  8
0
  2
DC_GROUP_66
 70
     0
 10
0.0
 20
0.0
 30
0.0
  3
DC_GROUP_66
  1

  0
INSERT
  5
38A
  8
LAYER0023
  6
CONTINUOUS
  2
DC_GROUP_67
 10
0.0
 20
0.0
 30
0.0
  0
INSERT
  5
38B
  8
LAYER0023
  6
CONTINUOUS
  2
DC_GROUP_68
 10
0.0
 20
0.0
 30
0.0
  0
INSERT
  5
38C
  8
LAYER0023
  6
CONTINUOUS
  2
DC_GROUP_69
 10
0.0
 20
0.0
 30
0.0
  0
ENDBLK
  5
141
  8
0
  0
BLOCK
  8
0
  2
DC_GROUP_67
 70
     0
 10
0.0
 20
0.0
 30
0.0
  3
DC_GROUP_67
  1

  0
LINE
  5
38D
  8
LAYER0023
 62
     3
 10
-485.8151600170054
 20
-1278.17331303841
 30
0.0
 11
-506.4376609422463
 21
-1278.17331303841
 31
0.0
  0
LINE
  5
38E
  8
LAYER0023
 62
     3
 10
-485.8151600170054
 20
-1294.627795710313
 30
0.0
 11
-506.4376609422463
 21
-1294.627795710313
 31
0.0
  0
LINE
  5
38F
  8
LAYER0023
 62
     3
 10
-509.8151600170056
 20
-1286.400554374362
 30
0.0
 11
-509.8151600170056
 21
-1335.646071702457
 31
0.0
  0
LINE
  5
390
  8
LAYER0023
 62
     3
 10
-485.8151600170054
 20
-1343.87331303841
 30
0.0
 11
-506.4376609422463
 21
-1343.87331303841
 31
0.0
  0
LINE
  5
391
  8
LAYER0023
 62
     3
 10
-485.8151600170054
 20
-1327.418830366505
 30
0.0
 11
-506.4376609422463
 21
-1327.418830366505
 31
0.0
  0
ARC
  5
392
  8
LAYER0023
 62
     3
 10
-498.1060524422482
 20
-1286.400554374362
 30
0.0
 40
11.70910757475732
 50
135.3611192140504
 51
224.6388807859499
  0
ARC
  5
393
  8
LAYER0023
 62
     3
 10
-498.1060524422482
 20
-1335.646071702457
 30
0.0
 40
11.70910757475738
 50
135.3611192140501
 51
224.6388807859496
  0
ARC
  5
394
  8
LAYER0023
 62
     3
 10
-468.3317306727863
 20
-1311.023313038409
 30
0.0
 40
41.4834293442191
 50
156.7196482575294
 51
203.2803517424706
  0
LINE
  5
395
  8
LAYER0023
 62
     3
 10
-478.3151600170054
 20
-1347.023313038409
 30
0.0
 11
-485.8151600170054
 21
-1347.023313038409
 31
0.0
  0
LINE
  5
396
  8
LAYER0023
 62
     3
 10
-478.3151600170054
 20
-1275.023313038409
 30
0.0
 11
-478.3151600170054
 21
-1347.023313038409
 31
0.0
  0
LINE
  5
397
  8
LAYER0023
 62
     3
 10
-478.3151600170054
 20
-1275.023313038409
 30
0.0
 11
-485.8151600170054
 21
-1275.023313038409
 31
0.0
  0
LINE
  5
398
  8
LAYER0023
 62
     3
 10
-485.8151600170054
 20
-1275.023313038409
 30
0.0
 11
-485.8151600170054
 21
-1347.023313038409
 31
0.0
  0
LINE
  5
399
  8
LAYER0023
 62
     3
 10
-478.3151600170054
 20
-1293.023313038409
 30
0.0
 11
-416.8151600170054
 21
-1293.023313038409
 31
0.0
  0
LINE
  5
39A
  8
LAYER0023
 62
     3
 10
-473.6515048185765
 20
-1293.023313038409
 30
0.0
 11
-468.7151600170053
 21
-1295.87331303841
 31
0.0
  0
LINE
  5
39B
  8
LAYER0023
 62
     3
 10
-416.8151600170054
 20
-1293.023313038409
 30
0.0
 11
-416.8151600170054
 21
-1329.023313038409
 31
0.0
  0
LINE
  5
39C
  8
LAYER0023
 62
     3
 10
-468.7151600170053
 20
-1293.023313038409
 30
0.0
 11
-468.7151600170053
 21
-1329.023313038409
 31
0.0
  0
LINE
  5
39D
  8
LAYER0023
 62
     3
 10
-478.3151600170054
 20
-1329.023313038409
 30
0.0
 11
-416.8151600170054
 21
-1329.023313038409
 31
0.0
  0
LINE
  5
39E
  8
LAYER0023
 62
     3
 10
-473.6515048185765
 20
-1329.023313038409
 30
0.0
 11
-468.7151600170053
 21
-1326.17331303841
 31
0.0
  0
LINE
  5
39F
  8
LAYER0023
 62
     3
 10
-410.8151600170054
 20
-1299.023313038409
 30
0.0
 11
-410.8151600170054
 21
-1323.023313038409
 31
0.0
  0
LINE
  5
3A0
  8
LAYER0023
 62
     3
 10
-416.8151600170054
 20
-1293.023313038409
 30
0.0
 11
-410.8151600170054
 21
-1299.023313038409
 31
0.0
  0
LINE
  5
3A1
  8
LAYER0023
 62
     3
 10
-416.8151600170054
 20
-1329.023313038409
 30
0.0
 11
-410.8151600170054
 21
-1323.023313038409
 31
0.0
  0
LINE
  5
3A2
  8
LAYER0023
 62
     4
 10
-468.7151600170053
 20
-1295.87331303841
 30
0.0
 11
-413.9651600170053
 21
-1295.87331303841
 31
0.0
  0
LINE
  5
3A3
  8
LAYER0023
 62
     4
 10
-468.7151600170053
 20
-1326.17331303841
 30
0.0
 11
-413.9651600170053
 21
-1326.17331303841
 31
0.0
  0
ENDBLK
  5
144
  8
0
  0
BLOCK
  8
0
  2
DC_GROUP_68
 70
     0
 10
0.0
 20
0.0
 30
0.0
  3
DC_GROUP_68
  1

  0
CIRCLE
  5
3A4
  8
LAYER0023
 62
     3
 10
-299.4824419243113
 20
-1311.023313038409
 30
0.0
 40
28.5
  0
LINE
  5
3A5
  8
LAYER0023
 62
     3
 10
-299.4824419243113
 20
-1278.114347694601
 30
0.0
 11
-327.9824419243113
 21
-1294.568830366505
 31
0.0
  0
LINE
  5
3A6
  8
LAYER0023
 62
     3
 10
-327.9824419243113
 20
-1294.568830366505
 30
0.0
 11
-327.9824419243113
 21
-1327.477795710314
 31
0.0
  0
LINE
  5
3A7
  8
LAYER0023
 62
     3
 10
-327.9824419243113
 20
-1327.477795710314
 30
0.0
 11
-299.4824419243113
 21
-1343.932278382218
 31
0.0
  0
LINE
  5
3A8
  8
LAYER0023
 62
     3
 10
-299.4824419243113
 20
-1343.932278382218
 30
0.0
 11
-270.9824419243113
 21
-1327.477795710314
 31
0.0
  0
LINE
  5
3A9
  8
LAYER0023
 62
     3
 10
-270.9824419243113
 20
-1327.477795710314
 30
0.0
 11
-270.9824419243113
 21
-1294.568830366505
 31
0.0
  0
LINE
  5
3AA
  8
LAYER0023
 62
     3
 10
-270.9824419243113
 20
-1294.568830366505
 30
0.0
 11
-299.4824419243113
 21
-1278.114347694601
 31
0.0
  0
CIRCLE
  5
3AB
  8
LAYER0023
 62
     3
 10
-299.4824419243113
 20
-1311.023313038409
 30
0.0
 40
15.375
  0
CIRCLE
  5
3AC
  8
LAYER0023
 62
     4
 10
-299.4824419243113
 20
-1311.023313038409
 30
0.0
 40
18.0
  0
ENDBLK
  5
147
  8
0
  0
BLOCK
  8
0
  2
DC_GROUP_69
 70
     0
 10
0.0
 20
0.0
 30
0.0
  3
DC_GROUP_69
  1

  0
CIRCLE
  5
3AD
  8
LAYER0023
 62
     3
 10
-119.3258617379518
 20
-1311.023313038409
 30
0.0
 40
36.0
  0
CIRCLE
  5
3AE
  8
LAYER0023
 62
     3
 10
-119.3258617379518
 20
-1311.023313038409
 30
0.0
 40
19.5
  0
ENDBLK
  5
14A
  8
0
  0
BLOCK
  8
0
  2
DC_GROUP_70
 70
     0
 10
0.0
 20
0.0
 30
0.0
  3
DC_GROUP_70
  1

  0
INSERT
  5
3AF
  8
LAYER0023
  6
CONTINUOUS
  2
DC_GROUP_71
 10
0.0
 20
0.0
 30
0.0
  0
INSERT
  5
3B0
  8
LAYER0023
  6
CONTINUOUS
  2
DC_GROUP_72
 10
0.0
 20
0.0
 30
0.0
  0
INSERT
  5
3B1
  8
LAYER0023
  6
CONTINUOUS
  2
DC_GROUP_73
 10
0.0
 20
0.0
 30
0.0
  0
ENDBLK
  5
14D
  8
0
  0
BLOCK
  8
0
  2
DC_GROUP_71
 70
     0
 10
0.0
 20
0.0
 30
0.0
  3
DC_GROUP_71
  1

  0
LINE
  5
3B2
  8
LAYER0023
 62
     3
 10
-485.8151600170054
 20
-1395.025772054803
 30
0.0
 11
-506.4376609422463
 21
-1395.025772054803
 31
0.0
  0
LINE
  5
3B3
  8
LAYER0023
 62
     3
 10
-485.8151600170054
 20
-1411.480254726707
 30
0.0
 11
-506.4376609422463
 21
-1411.480254726707
 31
0.0
  0
LINE
  5
3B4
  8
LAYER0023
 62
     3
 10
-509.8151600170056
 20
-1403.253013390755
 30
0.0
 11
-509.8151600170056
 21
-1452.49853071885
 31
0.0
  0
LINE
  5
3B5
  8
LAYER0023
 62
     3
 10
-485.8151600170054
 20
-1460.725772054804
 30
0.0
 11
-506.4376609422463
 21
-1460.725772054804
 31
0.0
  0
LINE
  5
3B6
  8
LAYER0023
 62
     3
 10
-485.8151600170054
 20
-1444.271289382898
 30
0.0
 11
-506.4376609422463
 21
-1444.271289382898
 31
0.0
  0
ARC
  5
3B7
  8
LAYER0023
 62
     3
 10
-498.1060524422482
 20
-1403.253013390755
 30
0.0
 40
11.70910757475732
 50
135.3611192140504
 51
224.6388807859499
  0
ARC
  5
3B8
  8
LAYER0023
 62
     3
 10
-498.1060524422482
 20
-1452.49853071885
 30
0.0
 40
11.70910757475738
 50
135.3611192140501
 51
224.6388807859496
  0
ARC
  5
3B9
  8
LAYER0023
 62
     3
 10
-468.3317306727863
 20
-1427.875772054803
 30
0.0
 40
41.4834293442191
 50
156.7196482575294
 51
203.2803517424706
  0
LINE
  5
3BA
  8
LAYER0023
 62
     3
 10
-478.3151600170054
 20
-1463.875772054803
 30
0.0
 11
-485.8151600170054
 21
-1463.875772054803
 31
0.0
  0
LINE
  5
3BB
  8
LAYER0023
 62
     3
 10
-478.3151600170054
 20
-1391.875772054803
 30
0.0
 11
-478.3151600170054
 21
-1463.875772054803
 31
0.0
  0
LINE
  5
3BC
  8
LAYER0023
 62
     3
 10
-478.3151600170054
 20
-1391.875772054803
 30
0.0
 11
-485.8151600170054
 21
-1391.875772054803
 31
0.0
  0
LINE
  5
3BD
  8
LAYER0023
 62
     3
 10
-485.8151600170054
 20
-1391.875772054803
 30
0.0
 11
-485.8151600170054
 21
-1463.875772054803
 31
0.0
  0
LINE
  5
3BE
  8
LAYER0023
 62
     3
 10
-478.3151600170054
 20
-1409.875772054803
 30
0.0
 11
-416.8151600170054
 21
-1409.875772054803
 31
0.0
  0
LINE
  5
3BF
  8
LAYER0023
 62
     3
 10
-473.6515048185765
 20
-1409.875772054803
 30
0.0
 11
-468.7151600170053
 21
-1412.725772054804
 31
0.0
  0
LINE
  5
3C0
  8
LAYER0023
 62
     3
 10
-416.8151600170054
 20
-1409.875772054803
 30
0.0
 11
-416.8151600170054
 21
-1445.875772054803
 31
0.0
  0
LINE
  5
3C1
  8
LAYER0023
 62
     3
 10
-468.7151600170053
 20
-1409.875772054803
 30
0.0
 11
-468.7151600170053
 21
-1445.875772054803
 31
0.0
  0
LINE
  5
3C2
  8
LAYER0023
 62
     3
 10
-478.3151600170054
 20
-1445.875772054803
 30
0.0
 11
-416.8151600170054
 21
-1445.875772054803
 31
0.0
  0
LINE
  5
3C3
  8
LAYER0023
 62
     3
 10
-473.6515048185765
 20
-1445.875772054803
 30
0.0
 11
-468.7151600170053
 21
-1443.025772054803
 31
0.0
  0
LINE
  5
3C4
  8
LAYER0023
 62
     3
 10
-410.8151600170054
 20
-1415.875772054803
 30
0.0
 11
-410.8151600170054
 21
-1439.875772054803
 31
0.0
  0
LINE
  5
3C5
  8
LAYER0023
 62
     3
 10
-416.8151600170054
 20
-1409.875772054803
 30
0.0
 11
-410.8151600170054
 21
-1415.875772054803
 31
0.0
  0
LINE
  5
3C6
  8
LAYER0023
 62
     3
 10
-416.8151600170054
 20
-1445.875772054803
 30
0.0
 11
-410.8151600170054
 21
-1439.875772054803
 31
0.0
  0
LINE
  5
3C7
  8
LAYER0023
 62
     4
 10
-468.7151600170053
 20
-1412.725772054804
 30
0.0
 11
-413.9651600170053
 21
-1412.725772054804
 31
0.0
  0
LINE
  5
3C8
  8
LAYER0023
 62
     4
 10
-468.7151600170053
 20
-1443.025772054803
 30
0.0
 11
-413.9651600170053
 21
-1443.025772054803
 31
0.0
  0
ENDBLK
  5
150
  8
0
  0
BLOCK
  8
0
  2
DC_GROUP_72
 70
     0
 10
0.0
 20
0.0
 30
0.0
  3
DC_GROUP_72
  1

  0
CIRCLE
  5
3C9
  8
LAYER0023
 62
     3
 10
-299.4824419243113
 20
-1427.875772054803
 30
0.0
 40
28.5
  0
LINE
  5
3CA
  8
LAYER0023
 62
     3
 10
-299.4824419243113
 20
-1394.966806710995
 30
0.0
 11
-327.9824419243113
 21
-1411.421289382899
 31
0.0
  0
LINE
  5
3CB
  8
LAYER0023
 62
     3
 10
-327.9824419243113
 20
-1411.421289382899
 30
0.0
 11
-327.9824419243113
 21
-1444.330254726708
 31
0.0
  0
LINE
  5
3CC
  8
LAYER0023
 62
     3
 10
-327.9824419243113
 20
-1444.330254726708
 30
0.0
 11
-299.4824419243113
 21
-1460.784737398612
 31
0.0
  0
LINE
  5
3CD
  8
LAYER0023
 62
     3
 10
-299.4824419243113
 20
-1460.784737398612
 30
0.0
 11
-270.9824419243113
 21
-1444.330254726708
 31
0.0
  0
LINE
  5
3CE
  8
LAYER0023
 62
     3
 10
-270.9824419243113
 20
-1444.330254726708
 30
0.0
 11
-270.9824419243113
 21
-1411.421289382899
 31
0.0
  0
LINE
  5
3CF
  8
LAYER0023
 62
     3
 10
-270.9824419243113
 20
-1411.421289382899
 30
0.0
 11
-299.4824419243113
 21
-1394.966806710995
 31
0.0
  0
CIRCLE
  5
3D0
  8
LAYER0023
 62
     3
 10
-299.4824419243113
 20
-1427.875772054803
 30
0.0
 40
15.375
  0
CIRCLE
  5
3D1
  8
LAYER0023
 62
     4
 10
-299.4824419243113
 20
-1427.875772054803
 30
0.0
 40
18.0
  0
ENDBLK
  5
153
  8
0
  0
BLOCK
  8
0
  2
DC_GROUP_73
 70
     0
 10
0.0
 20
0.0
 30
0.0
  3
DC_GROUP_73
  1

  0
CIRCLE
  5
3D2
  8
LAYER0023
 62
     3
 10
-119.3258617379518
 20
-1427.875772054803
 30
0.0
 40
36.0
  0
CIRCLE
  5
3D3
  8
LAYER0023
 62
     3
 10
-119.3258617379518
 20
-1427.875772054803
 30
0.0
 40
19.5
  0
ENDBLK
  5
156
  8
0
  0
BLOCK
  8
0
  2
DC_GROUP_74
 70
     0
 10
0.0
 20
0.0
 30
0.0
  3
DC_GROUP_74
  1

  0
LINE
  5
3D4
  8
LAYER0015
 62
     4
 10
-296.1393442622951
 20
-1187.229508196721
 30
0.0
 11
-391.4950527877341
 21
-1068.988429625176
 31
0.0
  0
CIRCLE
  5
3D5
  8
LAYER0015
 62
     4
 10
-417.8606557377049
 20
-1036.295081967212
 30
0.0
 40
42.0
  0
TEXT
  5
3D6
  8
LAYER0015
 62
     4
 10
-441.8606557377049
 20
-1066.295081967212
 30
0.0
 40
60.0
  1
5
 41
0.8
  7
FDASTYLE0
 72
     5
 11
-393.8606557377049
 21
-1066.295081967212
 31
0.0
  0
ENDBLK
  5
159
  8
0
  0
BLOCK
  8
0
  2
DC_GROUP_75
 70
     0
 10
0.0
 20
0.0
 30
0.0
  3
DC_GROUP_75
  1

  0
INSERT
  5
3D7
  8
LAYER0016
  6
CONTINUOUS
  2
DC_GROUP_76
 10
0.0
 20
0.0
 30
0.0
  0
LINE
  5
3D8
  8
LAYER0016
  6
CENTER
 62
     4
 10
1977.610316262214
 20
-543.5473748660647
 30
0.0
 11
1977.610316262214
 21
-515.8709628042249
 31
0.0
  0
LINE
  5
3D9
  8
LAYER0016
  6
CENTER
 62
     4
 10
2072.741466401347
 20
-463.5865391864717
 30
0.0
 11
2105.143119546916
 21
-463.5865391864717
 31
0.0
  0
ENDBLK
  5
15C
  8
0
  0
BLOCK
  8
0
  2
DC_GROUP_76
 70
     0
 10
0.0
 20
0.0
 30
0.0
  3
DC_GROUP_76
  1

  0
LINE
  5
3DA
  8
LAYER0016
 62
     3
 10
2076.73031625845
 20
-394.5865391852955
 30
0.0
 11
2028.610316258454
 21
-394.5865391852057
 31
0.0
  0
LINE
  5
3DB
  8
LAYER0016
 62
     3
 10
2028.610316258454
 20
-388.5865391852058
 30
0.0
 11
2028.610316258454
 21
-394.5865391852058
 31
0.0
  0
INSERT
  5
3DC
  8
LAYER0016
  6
CONTINUOUS
  2
DC_GROUP_77
 10
0.0
 20
0.0
 30
0.0
  0
ENDBLK
  5
15F
  8
0
  0
BLOCK
  8
0
  2
DC_GROUP_77
 70
     0
 10
0.0
 20
0.0
 30
0.0
  3
DC_GROUP_77
  1

  0
LINE
  5
3DD
  8
LAYER0016
 62
     3
 10
1881.610316258129
 20
-532.586539184761
 30
0.0
 11
2076.730316258123
 21
-532.5865391852883
 31
0.0
  0
LINE
  5
3DE
  8
LAYER0016
 62
     3
 10
2091.610316258164
 20
-517.7065391853218
 30
0.0
 11
2091.61031625842
 21
-403.466539185333
 31
0.0
  0
LINE
  5
3DF
  8
LAYER0016
 62
     3
 10
2076.73031625845
 20
-388.5865391852995
 30
0.0
 11
2028.610316258454
 21
-388.5865391852057
 31
0.0
  0
LINE
  5
3E0
  8
LAYER0016
 62
     3
 10
1881.610316258146
 20
-526.5865391847638
 30
0.0
 11
1881.610316258129
 21
-532.586539184761
 31
0.0
  0
LINE
  5
3E1
  8
LAYER0016
 62
     3
 10
1881.610316258146
 20
-526.5865391847638
 30
0.0
 11
2076.730316258143
 21
-526.5865391852909
 31
0.0
  0
LINE
  5
3E2
  8
LAYER0016
 62
     3
 10
2085.610316258167
 20
-517.7065391853116
 30
0.0
 11
2085.610316258434
 21
-403.4665391853163
 31
0.0
  0
ARC
  5
3E3
  8
LAYER0016
 62
     3
 10
2076.730316258421
 20
-403.4665391852996
 30
0.0
 40
14.88
 50
359.9999999998709
 51
449.9999999998888
  0
ARC
  5
3E4
  8
LAYER0016
 62
     3
 10
2076.730316258163
 20
-517.7065391852883
 30
0.0
 40
14.88
 50
269.999999999845
 51
359.9999999998709
  0
ARC
  5
3E5
  8
LAYER0016
 62
     3
 10
2076.730316258167
 20
-517.7065391852909
 30
0.0
 40
8.879999999999999
 50
269.9999999998445
 51
359.9999999998665
  0
ENDBLK
  5
162
  8
0
  0
BLOCK
  8
0
  2
DA_IMAGEDIMGROUP_15
 70
     0
 10
0.0
 20
0.0
 30
0.0
  3
DA_IMAGEDIMGROUP_15
  1

  0
LINE
  5
3E6
  8
LAYER0017
 62
     4
 10
1881.610316258129
 20
-544.586539184761
 30
0.0
 11
1881.610316258129
 21
-653.3309352517986
 31
0.0
  0
LINE
  5
3E7
  8
LAYER0017
 62
     4
 10
2091.610316258164
 20
-529.7065391853218
 30
0.0
 11
2091.610316258164
 21
-653.3309352517986
 31
0.0
  0
LINE
  5
3E8
  8
LAYER0017
 62
     4
 10
1881.610316258129
 20
-641.3309352517986
 30
0.0
 11
2091.610316258164
 21
-641.3309352517986
 31
0.0
  0
INSERT
  5
3E9
  8
LAYER0017
 62
     4
  2
_OPEN30
 10
1881.610316258129
 20
-641.3309352517986
 30
0.0
 41
36.00003345389238
 42
35.99987128774157
 50
180.0
  0
INSERT
  5
3EA
  8
LAYER0017
 62
     4
  2
_OPEN30
 10
2091.610316258164
 20
-641.3309352517986
 30
0.0
 41
36.00003345389238
 42
35.99987128774157
 50
360.0
  0
TEXT
  5
3EB
  8
LAYER0017
 62
     4
 10
1953.010316258146
 20
-629.3309352517986
 30
0.0
 40
42.0
  1
70
 41
0.7999999999999978
  7
FDASTYLE0
 72
     5
 11
2020.210316258146
 21
-629.3309352517986
 31
0.0
  0
ENDBLK
  5
165
  8
0
  0
BLOCK
  8
0
  2
DA_IMAGEDIMGROUP_16
 70
     0
 10
0.0
 20
0.0
 30
0.0
  3
DA_IMAGEDIMGROUP_16
  1

  0
LINE
  5
3EC
  8
LAYER0017
 62
     4
 10
2091.61031625842
 20
-391.466539185333
 30
0.0
 11
2091.61031625842
 21
-280.338129496403
 31
0.0
  0
LINE
  5
3ED
  8
LAYER0017
 62
     4
 10
2028.610316258454
 20
-376.5865391852057
 30
0.0
 11
2028.610316258454
 21
-280.338129496403
 31
0.0
  0
LINE
  5
3EE
  8
LAYER0017
 62
     4
 10
2028.610316258454
 20
-292.338129496403
 30
0.0
 11
2091.61031625842
 21
-292.338129496403
 31
0.0
  0
LINE
  5
3EF
  8
LAYER0017
 62
     4
 10
1902.636956258454
 20
-292.338129496403
 30
0.0
 11
2028.610316258454
 21
-292.338129496403
 31
0.0
  0
INSERT
  5
3F0
  8
LAYER0017
 62
     4
  2
_OPEN30
 10
2028.610316258454
 20
-292.338129496403
 30
0.0
 41
36.00003345389238
 42
35.99987128774157
 50
360.0
  0
LINE
  5
3F1
  8
LAYER0017
 62
     4
 10
2151.61031625842
 20
-292.338129496403
 30
0.0
 11
2091.61031625842
 21
-292.338129496403
 31
0.0
  0
INSERT
  5
3F2
  8
LAYER0017
 62
     4
  2
_OPEN30
 10
2091.61031625842
 20
-292.338129496403
 30
0.0
 41
36.00003345389238
 42
35.99987128774157
 50
180.0
  0
TEXT
  5
3F3
  8
LAYER0017
 62
     4
 10
1914.636956258454
 20
-280.338129496403
 30
0.0
 40
42.0
  1
21
 41
0.8000000000000005
  7
FDASTYLE0
 72
     5
 11
1981.836956258454
 21
-280.338129496403
 31
0.0
  0
ENDBLK
  5
168
  8
0
  0
BLOCK
  8
0
  2
DA_IMAGEDIMGROUP_17
 70
     0
 10
0.0
 20
0.0
 30
0.0
  3
DA_IMAGEDIMGROUP_17
  1

  0
LINE
  5
3F4
  8
LAYER0017
 62
     4
 10
2088.730316258123
 20
-532.5865391852882
 30
0.0
 11
2255.525179856115
 21
-532.5865391852882
 31
0.0
  0
LINE
  5
3F5
  8
LAYER0017
 62
     4
 10
2088.73031625845
 20
-388.5865391852995
 30
0.0
 11
2255.525179856115
 21
-388.5865391852995
 31
0.0
  0
LINE
  5
3F6
  8
LAYER0017
 62
     4
 10
2243.525179856115
 20
-532.5865391852882
 30
0.0
 11
2243.525179856115
 21
-388.5865391852995
 31
0.0
  0
LINE
  5
3F7
  8
LAYER0017
 62
     4
 10
2243.525179856115
 20
-328.5865391852995
 30
0.0
 11
2243.525179856115
 21
-388.5865391852995
 31
0.0
  0
INSERT
  5
3F8
  8
LAYER0017
 62
     4
  2
_OPEN30
 10
2243.525179856115
 20
-388.5865391852995
 30
0.0
 41
36.00003345389238
 42
35.99987128774157
 50
270.0
  0
LINE
  5
3F9
  8
LAYER0017
 62
     4
 10
2243.525179856115
 20
-592.5865391852882
 30
0.0
 11
2243.525179856115
 21
-532.5865391852882
 31
0.0
  0
INSERT
  5
3FA
  8
LAYER0017
 62
     4
  2
_OPEN30
 10
2243.525179856115
 20
-532.5865391852882
 30
0.0
 41
36.00003345389238
 42
35.99987128774157
 50
90.0
  0
TEXT
  5
3FB
  8
LAYER0017
 62
     4
 10
2231.525179856115
 20
-494.1865391852938
 30
0.0
 40
42.0
  1
48
 50
90.0
 41
0.7999999999999978
  7
FDASTYLE0
 72
     5
 11
2231.525179856115
 21
-426.986539185294
 31
0.0
  0
ENDBLK
  5
16B
  8
0
  0
BLOCK
  8
0
  2
DC_GROUP_78
 70
     0
 10
0.0
 20
0.0
 30
0.0
  3
DC_GROUP_78
  1

  0
TEXT
  5
3FC
  8
LAYER0017
 62
     4
 10
1822.014388489209
 20
-174.4964028776979
 30
0.0
 40
60.0
  1
　脚　断面形状　
 41
0.676113360323887
  7
FDASTYLE0
 72
     5
 11
2222.814388489209
 21
-174.4964028776979
 31
0.0
  0
ARC
  5
3FD
  8
LAYER0017
 62
     6
 10
1840.014388489209
 20
-132.4964028776979
 30
0.0
 40
24.0
 50
90.0
 51
180.0
  0
LINE
  5
3FE
  8
LAYER0017
 62
     6
 10
1816.014388489209
 20
-132.4964028776979
 30
0.0
 11
1816.014388489209
 21
-156.4964028776979
 31
0.0
  0
ARC
  5
3FF
  8
LAYER0017
 62
     6
 10
1840.014388489209
 20
-156.4964028776979
 30
0.0
 40
24.0
 50
180.0
 51
270.0
  0
LINE
  5
400
  8
LAYER0017
 62
     6
 10
1840.014388489209
 20
-180.4964028776979
 30
0.0
 11
2204.814388489209
 21
-180.4964028776979
 31
0.0
  0
ARC
  5
401
  8
LAYER0017
 62
     6
 10
2204.814388489209
 20
-156.4964028776979
 30
0.0
 40
24.0
 50
270.0
 51
360.0
  0
LINE
  5
402
  8
LAYER0017
 62
     6
 10
2228.814388489209
 20
-156.4964028776979
 30
0.0
 11
2228.814388489209
 21
-132.4964028776979
 31
0.0
  0
ARC
  5
403
  8
LAYER0017
 62
     6
 10
2204.814388489209
 20
-132.4964028776979
 30
0.0
 40
24.0
 50
0.0
 51
90.0
  0
LINE
  5
404
  8
LAYER0017
 62
     6
 10
2204.814388489209
 20
-108.4964028776979
 30
0.0
 11
1840.014388489209
 21
-108.4964028776979
 31
0.0
  0
ENDBLK
  5
16E
  8
0
  0
BLOCK
  8
0
  2
DC_GROUP_79
 70
     0
 10
0.0
 20
0.0
 30
0.0
  3
DC_GROUP_79
  1

  0
LINE
  5
405
  8
ZUWAKU
 62
   190
 10
-2165.843781809052
 20
-1609.974606741573
 30
0.0
 11
-2138.200250920252
 21
-1562.094606741573
 31
0.0
  0
LINE
  5
406
  8
ZUWAKU
 62
   190
 10
-2110.556720031454
 20
-1609.974606741573
 30
0.0
 11
-2165.843781809052
 21
-1609.974606741573
 31
0.0
  0
LINE
  5
407
  8
ZUWAKU
 62
   190
 10
-2138.200250920252
 20
-1562.094606741573
 30
0.0
 11
-2110.556720031454
 21
-1609.974606741573
 31
0.0
  0
TEXT
  5
408
  8
ZUWAKU
 62
   190
 10
-2147.800250920252
 20
-1606.014606741573
 30
0.0
 40
23.99999999999998
  1
1
 41
0.7999999999999932
  7
FDASTYLE0
 72
     5
 11
-2128.600250920252
 21
-1606.014606741573
 31
0.0
  0
ENDBLK
  5
171
  8
0
  0
BLOCK
  8
0
  2
DC_GROUP_80
 70
     0
 10
0.0
 20
0.0
 30
0.0
  3
DC_GROUP_80
  1

  0
LINE
  5
409
  8
ZUWAKU
 62
   190
 10
79.12498564637622
 20
45.25977970510166
 30
0.0
 11
31.24498564637611
 21
72.90331059390098
 31
0.0
  0
LINE
  5
40A
  8
ZUWAKU
 62
   190
 10
79.12498564637622
 20
100.5468414827
 30
0.0
 11
79.12498564637622
 21
45.25977970510166
 31
0.0
  0
LINE
  5
40B
  8
ZUWAKU
 62
   190
 10
31.24498564637611
 20
72.90331059390132
 30
0.0
 11
79.12498564637622
 21
100.5468414827
 31
0.0
  0
TEXT
  5
40C
  8
ZUWAKU
 62
   190
 10
75.16498564637639
 20
63.30331059390099
 30
0.0
 40
23.99999999999998
  1
1
 50
90.0
 41
0.8000000000000003
  7
FDASTYLE0
 72
     5
 11
75.16498564637639
 21
82.50331059390098
 31
0.0
  0
ENDBLK
  5
174
  8
0
  0
BLOCK
  8
0
  2
_OPEN30
 70
     0
 10
0.0
 20
0.0
 30
0.0
  3
_OPEN30
  1

  0
LINE
  5
2D0
  8
0
  6
BYBLOCK
 62
     0
 10
-1.0
 20
0.267949
 30
0.0
 11
0.0
 21
0.0
 31
0.0
  0
LINE
  5
2D1
  8
0
  6
BYBLOCK
 62
     0
 10
0.0
 20
0.0
 30
0.0
 11
-1.0
 21
-0.267949
 31
0.0
  0
LINE
  5
2D2
  8
0
  6
BYBLOCK
 62
     0
 10
0.0
 20
0.0
 30
0.0
 11
-1.0
 21
0.0
 31
0.0
  0
ENDBLK
  5
2CF
  8
0
  0
BLOCK
  8
0
  2
_DOT
 70
     0
 10
0.0
 20
0.0
 30
0.0
  3
_DOT
  1

  0
POLYLINE
  5
31A
  8
0
  6
BYBLOCK
 62
     0
 66
     1
 10
0.0
 20
0.0
 30
0.0
 70
     1
 40
0.5
 41
0.5
  0
VERTEX
  5
77D
  8
0
  6
BYBLOCK
 62
     0
 10
-0.25
 20
0.0
 30
0.0
 42
1.0
  0
VERTEX
  5
77E
  8
0
  6
BYBLOCK
 62
     0
 10
0.25
 20
0.0
 30
0.0
 42
1.0
  0
SEQEND
  5
77C
  8
0
  6
BYBLOCK
 62
     0
  0
LINE
  5
31B
  8
0
  6
BYBLOCK
 62
     0
 10
-0.5
 20
0.0
 30
0.0
 11
-1.0
 21
0.0
 31
0.0
  0
ENDBLK
  5
319
  8
0
  0
ENDSEC
  0
SECTION
  2
ENTITIES
  0
LINE
  5
40D
  8
ZUWAKU
 62
     5
 10
-2328.000000000014
 20
1678.999999999972
 30
0.0
 11
2365.999999999986
 21
1678.999999999974
 31
0.0
  0
LINE
  5
40E
  8
ZUWAKU
 62
     5
 10
-2328.000000000013
 20
-1662.000000000027
 30
0.0
 11
-2328.000000000013
 21
1678.999999999972
 31
0.0
  0
LINE
  5
40F
  8
ZUWAKU
 62
     5
 10
2365.999999999986
 20
-1662.000000000026
 30
0.0
 11
-2328.000000000013
 21
-1662.000000000027
 31
0.0
  0
LINE
  5
410
  8
ZUWAKU
 62
     5
 10
2365.999999999986
 20
1678.999999999974
 30
0.0
 11
2365.999999999986
 21
-1662.000000000026
 31
0.0
  0
LINE
  5
411
  8
ZUWAKU
 62
     3
 10
1177.999999999986
 20
-1257.000000000026
 30
0.0
 11
1177.999999999986
 21
-1662.000000000027
 31
0.0
  0
LINE
  5
412
  8
ZUWAKU
 62
     3
 10
1177.999999999986
 20
-1302.000000000026
 30
0.0
 11
2365.999999999986
 21
-1302.000000000026
 31
0.0
  0
LINE
  5
413
  8
ZUWAKU
 62
     4
 10
1837.999999999986
 20
-1446.000000000026
 30
0.0
 11
1837.999999999987
 21
-1536.000000000026
 31
0.0
  0
LINE
  5
414
  8
ZUWAKU
 62
     4
 10
1837.999999999986
 20
-1302.000000000026
 30
0.0
 11
1837.999999999986
 21
-1446.000000000026
 31
0.0
  0
LINE
  5
415
  8
ZUWAKU
 62
     4
 10
1177.999999999986
 20
-1446.000000000027
 30
0.0
 11
2365.999999999986
 21
-1446.000000000026
 31
0.0
  0
LINE
  5
416
  8
ZUWAKU
 62
     4
 10
2365.999999999986
 20
-1536.000000000027
 30
0.0
 11
1177.999999999986
 21
-1536.000000000027
 31
0.0
  0
LINE
  5
417
  8
ZUWAKU
 62
     4
 10
1240.999999999986
 20
-1302.000000000026
 30
0.0
 11
1240.999999999986
 21
-1536.000000000027
 31
0.0
  0
LINE
  5
418
  8
ZUWAKU
 62
     4
 10
1900.999999999985
 20
-1446.000000000026
 30
0.0
 11
1900.999999999985
 21
-1536.000000000026
 31
0.0
  0
LINE
  5
419
  8
ZUWAKU
 62
     4
 10
1900.999999999981
 20
-1302.000000000026
 30
0.0
 11
1900.999999999981
 21
-1446.000000000026
 31
0.0
  0
LINE
  5
41A
  8
ZUWAKU
 62
     4
 10
1666.999999999987
 20
-1446.000000000026
 30
0.0
 11
1666.999999999987
 21
-1536.000000000026
 31
0.0
  0
LINE
  5
41B
  8
ZUWAKU
 62
     4
 10
1558.999999999987
 20
-1446.000000000026
 30
0.0
 11
1558.999999999987
 21
-1536.000000000026
 31
0.0
  0
LINE
  5
41C
  8
ZUWAKU
 62
     4
 10
1495.999999999987
 20
-1446.000000000026
 30
0.0
 11
1495.999999999987
 21
-1536.000000000026
 31
0.0
  0
LINE
  5
41D
  8
ZUWAKU
 62
     4
 10
1276.999999999986
 20
-1536.000000000027
 30
0.0
 11
1276.999999999986
 21
-1662.000000000026
 31
0.0
  0
LINE
  5
41E
  8
ZUWAKU
 62
     4
 10
1177.999999999986
 20
-1257.000000000026
 30
0.0
 11
2365.999999999985
 21
-1257.00000000003
 31
0.0
  0
ARC
  5
41F
  8
ZUWAKU
 62
     4
 10
1888.953360936457
 20
-1572.557728715409
 30
0.0
 40
0.7809640024405483
 50
89.99999999999885
 51
269.9999999999988
  0
LINE
  5
420
  8
ZUWAKU
 62
     4
 10
1888.953360936457
 20
-1573.338692717843
 30
0.0
 11
1896.372518959639
 21
-1573.338692717843
 31
0.0
  0
ARC
  5
421
  8
ZUWAKU
 62
     4
 10
1896.372518959639
 20
-1585.443634755683
 30
0.0
 40
12.10494203782794
 50
0.0000000000000114
 51
89.99999999999905
  0
LINE
  5
422
  8
ZUWAKU
 62
     4
 10
1908.477460997472
 20
-1585.443634755683
 30
0.0
 11
1908.477460997472
 21
-1635.034848910654
 31
0.0
  0
LINE
  5
423
  8
ZUWAKU
 62
     4
 10
1908.477460997472
 20
-1635.034848910654
 30
0.0
 11
1795.237680643591
 21
-1635.034848910654
 31
0.0
  0
LINE
  5
424
  8
ZUWAKU
 62
     4
 10
1795.237680643591
 20
-1635.034848910654
 30
0.0
 11
1795.237680643591
 21
-1585.443634755683
 31
0.0
  0
ARC
  5
425
  8
ZUWAKU
 62
     4
 10
1807.342622681423
 20
-1585.443634755683
 30
0.0
 40
12.10494203782794
 50
90.0000000000001
 51
179.9999999999999
  0
LINE
  5
426
  8
ZUWAKU
 62
     4
 10
1807.342622681423
 20
-1573.338692717843
 30
0.0
 11
1814.761780704605
 21
-1573.338692717843
 31
0.0
  0
ARC
  5
427
  8
ZUWAKU
 62
     4
 10
1814.761780704605
 20
-1572.557728715409
 30
0.0
 40
0.7809640024405411
 50
270.0000000000001
 51
450.0000000000004
  0
LINE
  5
428
  8
ZUWAKU
 62
     4
 10
1814.761780704605
 20
-1571.776764712976
 30
0.0
 11
1807.342622681423
 21
-1571.776764712976
 31
0.0
  0
ARC
  5
429
  8
ZUWAKU
 62
     4
 10
1807.342622681423
 20
-1585.443634755683
 30
0.0
 40
13.66687004270897
 50
90.00000000000058
 51
179.9999999999999
  0
LINE
  5
42A
  8
ZUWAKU
 62
     4
 10
1793.675752638716
 20
-1585.443634755683
 30
0.0
 11
1793.675752638716
 21
-1636.596776915537
 31
0.0
  0
LINE
  5
42B
  8
ZUWAKU
 62
     4
 10
1793.675752638716
 20
-1636.596776915537
 30
0.0
 11
1910.039389002347
 21
-1636.596776915537
 31
0.0
  0
LINE
  5
42C
  8
ZUWAKU
 62
     4
 10
1910.039389002347
 20
-1636.596776915537
 30
0.0
 11
1910.039389002347
 21
-1585.443634755683
 31
0.0
  0
ARC
  5
42D
  8
ZUWAKU
 62
     4
 10
1896.372518959639
 20
-1585.443634755683
 30
0.0
 40
13.66687004270897
 50
0.0000000000000114
 51
89.99999999999905
  0
LINE
  5
42E
  8
ZUWAKU
 62
     4
 10
1896.372518959639
 20
-1571.776764712976
 30
0.0
 11
1888.953360936457
 21
-1571.776764712976
 31
0.0
  0
LINE
  5
42F
  8
ZUWAKU
 62
     4
 10
1877.184579142191
 20
-1614.272982489988
 30
0.0
 11
1877.378836068073
 21
-1612.790799763067
 31
0.0
  0
LINE
  5
430
  8
ZUWAKU
 62
     4
 10
1877.378836068073
 20
-1612.790799763067
 30
0.0
 11
1877.390747970499
 21
-1611.284740433898
 31
0.0
  0
LINE
  5
431
  8
ZUWAKU
 62
     4
 10
1877.390747970499
 20
-1611.284740433898
 30
0.0
 11
1877.220224192689
 21
-1609.76626652337
 31
0.0
  0
LINE
  5
432
  8
ZUWAKU
 62
     4
 10
1877.220224192689
 20
-1609.76626652337
 30
0.0
 11
1876.868562523569
 21
-1608.246934534839
 31
0.0
  0
LINE
  5
433
  8
ZUWAKU
 62
     4
 10
1876.868562523569
 20
-1608.246934534839
 30
0.0
 11
1876.338439320766
 21
-1606.738307502129
 31
0.0
  0
LINE
  5
434
  8
ZUWAKU
 62
     4
 10
1876.338439320766
 20
-1606.738307502129
 30
0.0
 11
1876.229649927674
 21
-1606.508786644306
 31
0.0
  0
LINE
  5
435
  8
ZUWAKU
 62
     4
 10
1872.748982905686
 20
-1601.282130572804
 30
0.0
 11
1872.533680102181
 21
-1601.037432751425
 31
0.0
  0
LINE
  5
436
  8
ZUWAKU
 62
     4
 10
1872.533680102181
 20
-1601.037432751425
 30
0.0
 11
1871.197646991768
 21
-1599.749897715637
 31
0.0
  0
LINE
  5
437
  8
ZUWAKU
 62
     4
 10
1871.197646991768
 20
-1599.749897715637
 30
0.0
 11
1869.726311439072
 21
-1598.537735216497
 31
0.0
  0
LINE
  5
438
  8
ZUWAKU
 62
     4
 10
1869.726311439072
 20
-1598.537735216497
 30
0.0
 11
1868.130871196066
 21
-1597.410170542572
 31
0.0
  0
LINE
  5
439
  8
ZUWAKU
 62
     4
 10
1868.130871196066
 20
-1597.410170542572
 30
0.0
 11
1866.423468526347
 21
-1596.375785141859
 31
0.0
  0
LINE
  5
43A
  8
ZUWAKU
 62
     4
 10
1866.423468526347
 20
-1596.375785141859
 30
0.0
 11
1864.617097795188
 21
-1595.442451311829
 31
0.0
  0
LINE
  5
43B
  8
ZUWAKU
 62
     4
 10
1864.617097795188
 20
-1595.442451311829
 30
0.0
 11
1862.725506574583
 21
-1594.617272286504
 31
0.0
  0
LINE
  5
43C
  8
ZUWAKU
 62
     4
 10
1862.725506574583
 20
-1594.617272286504
 30
0.0
 11
1860.763091015877
 21
-1593.906528176515
 31
0.0
  0
LINE
  5
43D
  8
ZUWAKU
 62
     4
 10
1860.763091015877
 20
-1593.906528176515
 30
0.0
 11
1858.744786286427
 21
-1593.315628173711
 31
0.0
  0
LINE
  5
43E
  8
ZUWAKU
 62
     4
 10
1858.744786286427
 20
-1593.315628173711
 30
0.0
 11
1856.685952903898
 21
-1592.849069383897
 31
0.0
  0
LINE
  5
43F
  8
ZUWAKU
 62
     4
 10
1856.685952903898
 20
-1592.849069383897
 30
0.0
 11
1854.602259833489
 21
-1592.510402601182
 31
0.0
  0
LINE
  5
440
  8
ZUWAKU
 62
     4
 10
1854.602259833489
 20
-1592.510402601182
 30
0.0
 11
1852.509565237644
 21
-1592.302205284269
 31
0.0
  0
LINE
  5
441
  8
ZUWAKU
 62
     4
 10
1852.509565237644
 20
-1592.302205284269
 30
0.0
 11
1850.423795785834
 21
-1592.226061940471
 31
0.0
  0
LINE
  5
442
  8
ZUWAKU
 62
     4
 10
1850.423795785834
 20
-1592.226061940471
 30
0.0
 11
1848.360825443005
 21
-1592.282552066578
 31
0.0
  0
LINE
  5
443
  8
ZUWAKU
 62
     4
 10
1848.360825443005
 20
-1592.282552066578
 30
0.0
 11
1846.336354659129
 21
-1592.471245738653
 31
0.0
  0
LINE
  5
444
  8
ZUWAKU
 62
     4
 10
1846.336354659129
 20
-1592.471245738653
 30
0.0
 11
1844.365790879285
 21
-1592.790706883915
 31
0.0
  0
LINE
  5
445
  8
ZUWAKU
 62
     4
 10
1844.365790879285
 20
-1592.790706883915
 30
0.0
 11
1842.464131283685
 21
-1593.238504210122
 31
0.0
  0
LINE
  5
446
  8
ZUWAKU
 62
     4
 10
1842.464131283685
 20
-1593.238504210122
 30
0.0
 11
1840.645848650107
 21
-1593.811229709262
 31
0.0
  0
LINE
  5
447
  8
ZUWAKU
 62
     4
 10
1840.645848650107
 20
-1593.811229709262
 30
0.0
 11
1838.924781207305
 21
-1594.504524594465
 31
0.0
  0
LINE
  5
448
  8
ZUWAKU
 62
     4
 10
1838.924781207305
 20
-1594.504524594465
 30
0.0
 11
1837.314027317727
 21
-1595.313112473007
 31
0.0
  0
LINE
  5
449
  8
ZUWAKU
 62
     4
 10
1837.314027317727
 20
-1595.313112473007
 30
0.0
 11
1835.825845791071
 21
-1596.230839502913
 31
0.0
  0
LINE
  5
44A
  8
ZUWAKU
 62
     4
 10
1835.825845791071
 20
-1596.230839502913
 30
0.0
 11
1834.471562587345
 21
-1597.250721227362
 31
0.0
  0
LINE
  5
44B
  8
ZUWAKU
 62
     4
 10
1834.471562587345
 20
-1597.250721227362
 30
0.0
 11
1833.261484619467
 21
-1598.364995730574
 31
0.0
  0
LINE
  5
44C
  8
ZUWAKU
 62
     4
 10
1833.261484619467
 20
-1598.364995730574
 30
0.0
 11
1832.204821311435
 21
-1599.565182710779
 31
0.0
  0
LINE
  5
44D
  8
ZUWAKU
 62
     4
 10
1832.204821311435
 20
-1599.565182710779
 30
0.0
 11
1831.949988327033
 21
-1599.928688528619
 31
0.0
  0
LINE
  5
44E
  8
ZUWAKU
 62
     4
 10
1830.975892940435
 20
-1601.459161656915
 30
0.0
 11
1830.582677276647
 21
-1602.186173182289
 31
0.0
  0
LINE
  5
44F
  8
ZUWAKU
 62
     4
 10
1830.582677276647
 20
-1602.186173182289
 30
0.0
 11
1830.560038881361
 21
-1602.243506604455
 31
0.0
  0
LINE
  5
450
  8
ZUWAKU
 62
     4
 10
1829.9998603197
 20
-1603.701525564274
 30
0.0
 11
1829.65441850863
 21
-1605.034055172674
 31
0.0
  0
LINE
  5
451
  8
ZUWAKU
 62
     4
 10
1829.65441850863
 20
-1605.034055172674
 30
0.0
 11
1829.460161582748
 21
-1606.516237899611
 31
0.0
  0
LINE
  5
452
  8
ZUWAKU
 62
     4
 10
1829.460161582748
 20
-1606.516237899611
 30
0.0
 11
1829.448249680329
 21
-1608.022297228764
 31
0.0
  0
LINE
  5
453
  8
ZUWAKU
 62
     4
 10
1829.448249680329
 20
-1608.022297228764
 30
0.0
 11
1829.61877345814
 21
-1609.540771139292
 31
0.0
  0
LINE
  5
454
  8
ZUWAKU
 62
     4
 10
1829.61877345814
 20
-1609.540771139292
 30
0.0
 11
1829.97043512726
 21
-1611.060103127823
 31
0.0
  0
LINE
  5
455
  8
ZUWAKU
 62
     4
 10
1829.97043512726
 20
-1611.060103127823
 30
0.0
 11
1830.500558330063
 21
-1612.568730160549
 31
0.0
  0
LINE
  5
456
  8
ZUWAKU
 62
     4
 10
1830.500558330063
 20
-1612.568730160549
 30
0.0
 11
1831.205108508865
 21
-1614.055170674797
 31
0.0
  0
LINE
  5
457
  8
ZUWAKU
 62
     4
 10
1831.205108508865
 20
-1614.055170674797
 30
0.0
 11
1832.078723611389
 21
-1615.508111960723
 31
0.0
  0
LINE
  5
458
  8
ZUWAKU
 62
     4
 10
1832.078723611389
 20
-1615.508111960723
 30
0.0
 11
1833.114754899209
 21
-1616.916496257841
 31
0.0
  0
LINE
  5
459
  8
ZUWAKU
 62
     4
 10
1833.114754899209
 20
-1616.916496257841
 30
0.0
 11
1834.305317548648
 21
-1618.269604911237
 31
0.0
  0
LINE
  5
45A
  8
ZUWAKU
 62
     4
 10
1834.305317548648
 20
-1618.269604911237
 30
0.0
 11
1835.641350659053
 21
-1619.557139947042
 31
0.0
  0
LINE
  5
45B
  8
ZUWAKU
 62
     4
 10
1835.641350659053
 20
-1619.557139947042
 30
0.0
 11
1837.112686211749
 21
-1620.769302446165
 31
0.0
  0
LINE
  5
45C
  8
ZUWAKU
 62
     4
 10
1837.112686211749
 20
-1620.769302446165
 30
0.0
 11
1838.708126454763
 21
-1621.89686712009
 31
0.0
  0
LINE
  5
45D
  8
ZUWAKU
 62
     4
 10
1838.708126454763
 20
-1621.89686712009
 30
0.0
 11
1840.415529124482
 21
-1622.93125252082
 31
0.0
  0
LINE
  5
45E
  8
ZUWAKU
 62
     4
 10
1840.415529124482
 20
-1622.93125252082
 30
0.0
 11
1842.221899855633
 21
-1623.864586350833
 31
0.0
  0
LINE
  5
45F
  8
ZUWAKU
 62
     4
 10
1842.221899855633
 20
-1623.864586350833
 30
0.0
 11
1844.113491076246
 21
-1624.689765376158
 31
0.0
  0
LINE
  5
460
  8
ZUWAKU
 62
     4
 10
1844.113491076246
 20
-1624.689765376158
 30
0.0
 11
1846.075906634944
 21
-1625.400509486147
 31
0.0
  0
LINE
  5
461
  8
ZUWAKU
 62
     4
 10
1846.075906634944
 20
-1625.400509486147
 30
0.0
 11
1848.094211364402
 21
-1625.991409488951
 31
0.0
  0
LINE
  5
462
  8
ZUWAKU
 62
     4
 10
1848.094211364402
 20
-1625.991409488951
 30
0.0
 11
1850.15304474693
 21
-1626.457968278765
 31
0.0
  0
LINE
  5
463
  8
ZUWAKU
 62
     4
 10
1850.15304474693
 20
-1626.457968278765
 30
0.0
 11
1852.236737817332
 21
-1626.796635061496
 31
0.0
  0
LINE
  5
464
  8
ZUWAKU
 62
     4
 10
1852.236737817332
 20
-1626.796635061496
 30
0.0
 11
1854.329432413185
 21
-1627.004832378393
 31
0.0
  0
LINE
  5
465
  8
ZUWAKU
 62
     4
 10
1854.329432413185
 20
-1627.004832378393
 30
0.0
 11
1856.415201864995
 21
-1627.080975722208
 31
0.0
  0
LINE
  5
466
  8
ZUWAKU
 62
     4
 10
1856.415201864995
 20
-1627.080975722208
 30
0.0
 11
1858.478172207816
 21
-1627.024485596084
 31
0.0
  0
LINE
  5
467
  8
ZUWAKU
 62
     4
 10
1858.478172207816
 20
-1627.024485596084
 30
0.0
 11
1860.502642991692
 21
-1626.835791924009
 31
0.0
  0
LINE
  5
468
  8
ZUWAKU
 62
     4
 10
1860.502642991692
 20
-1626.835791924009
 30
0.0
 11
1862.473206771544
 21
-1626.516330778763
 31
0.0
  0
LINE
  5
469
  8
ZUWAKU
 62
     4
 10
1862.473206771544
 20
-1626.516330778763
 30
0.0
 11
1864.374866367144
 21
-1626.06853345254
 31
0.0
  0
LINE
  5
46A
  8
ZUWAKU
 62
     4
 10
1864.374866367144
 20
-1626.06853345254
 30
0.0
 11
1866.193149000722
 21
-1625.4958079534
 31
0.0
  0
LINE
  5
46B
  8
ZUWAKU
 62
     4
 10
1866.193149000722
 20
-1625.4958079534
 30
0.0
 11
1867.914216443524
 21
-1624.802513068214
 31
0.0
  0
LINE
  5
46C
  8
ZUWAKU
 62
     4
 10
1867.914216443524
 20
-1624.802513068214
 30
0.0
 11
1869.524970333102
 21
-1623.993925189655
 31
0.0
  0
LINE
  5
46D
  8
ZUWAKU
 62
     4
 10
1869.524970333102
 20
-1623.993925189655
 30
0.0
 11
1871.013151859758
 21
-1623.076198159749
 31
0.0
  0
LINE
  5
46E
  8
ZUWAKU
 62
     4
 10
1871.013151859758
 20
-1623.076198159749
 30
0.0
 11
1872.367435063484
 21
-1622.056316435316
 31
0.0
  0
LINE
  5
46F
  8
ZUWAKU
 62
     4
 10
1872.367435063484
 20
-1622.056316435316
 30
0.0
 11
1873.577513031361
 21
-1620.942041932088
 31
0.0
  0
LINE
  5
470
  8
ZUWAKU
 62
     4
 10
1873.577513031361
 20
-1620.942041932088
 30
0.0
 11
1873.91483335774
 21
-1620.558904313138
 31
0.0
  0
LINE
  5
471
  8
ZUWAKU
 62
     4
 10
1874.954492572734
 20
-1619.28494073162
 30
0.0
 11
1875.529383141758
 21
-1618.464889642301
 31
0.0
  0
LINE
  5
472
  8
ZUWAKU
 62
     4
 10
1875.529383141758
 20
-1618.464889642301
 30
0.0
 11
1875.992687966724
 21
-1617.608291142978
 31
0.0
  0
LINE
  5
473
  8
ZUWAKU
 62
     4
 10
1876.669005430244
 20
-1616.075708838554
 30
0.0
 11
1876.809455605353
 21
-1615.720008309175
 31
0.0
  0
LINE
  5
474
  8
ZUWAKU
 62
     4
 10
1876.809455605353
 20
-1615.720008309175
 30
0.0
 11
1877.184579142191
 21
-1614.272982489988
 31
0.0
  0
LINE
  5
475
  8
ZUWAKU
 62
     4
 10
1875.651348154013
 20
-1613.974952576525
 30
0.0
 11
1875.833072375002
 21
-1612.588394541658
 31
0.0
  0
LINE
  5
476
  8
ZUWAKU
 62
     4
 10
1875.833072375002
 20
-1612.588394541658
 30
0.0
 11
1875.844215767592
 21
-1611.179500330512
 31
0.0
  0
LINE
  5
477
  8
ZUWAKU
 62
     4
 10
1875.844215767592
 20
-1611.179500330512
 30
0.0
 11
1875.684693523833
 21
-1609.75899247872
 31
0.0
  0
LINE
  5
478
  8
ZUWAKU
 62
     4
 10
1875.684693523833
 20
-1609.75899247872
 30
0.0
 11
1875.355719704332
 21
-1608.337681908809
 31
0.0
  0
LINE
  5
479
  8
ZUWAKU
 62
     4
 10
1875.355719704332
 20
-1608.337681908809
 30
0.0
 11
1874.925739329191
 21
-1607.114041792612
 31
0.0
  0
LINE
  5
47A
  8
ZUWAKU
 62
     4
 10
1874.271517098734
 20
-1605.685246852837
 30
0.0
 11
1874.200702669925
 21
-1605.535844526164
 31
0.0
  0
LINE
  5
47B
  8
ZUWAKU
 62
     4
 10
1874.200702669925
 20
-1605.535844526164
 30
0.0
 11
1873.383449832078
 21
-1604.176641387713
 31
0.0
  0
LINE
  5
47C
  8
ZUWAKU
 62
     4
 10
1873.383449832078
 20
-1604.176641387713
 30
0.0
 11
1872.395177551978
 21
-1602.833180840768
 31
0.0
  0
LINE
  5
47D
  8
ZUWAKU
 62
     4
 10
1870.914457305515
 20
-1601.221273090788
 30
0.0
 11
1870.050669690716
 21
-1600.38884101342
 31
0.0
  0
LINE
  5
47E
  8
ZUWAKU
 62
     4
 10
1870.050669690716
 20
-1600.38884101342
 30
0.0
 11
1868.674259012389
 21
-1599.254882546485
 31
0.0
  0
LINE
  5
47F
  8
ZUWAKU
 62
     4
 10
1868.674259012389
 20
-1599.254882546485
 30
0.0
 11
1867.18175039796
 21
-1598.200063980547
 31
0.0
  0
LINE
  5
480
  8
ZUWAKU
 62
     4
 10
1867.18175039796
 20
-1598.200063980547
 30
0.0
 11
1865.584502739184
 21
-1597.232413121826
 31
0.0
  0
LINE
  5
481
  8
ZUWAKU
 62
     4
 10
1865.584502739184
 20
-1597.232413121826
 30
0.0
 11
1863.894672055205
 21
-1596.359294377599
 31
0.0
  0
LINE
  5
482
  8
ZUWAKU
 62
     4
 10
1863.894672055205
 20
-1596.359294377599
 30
0.0
 11
1862.125118977856
 21
-1595.587352708749
 31
0.0
  0
LINE
  5
483
  8
ZUWAKU
 62
     4
 10
1862.125118977856
 20
-1595.587352708749
 30
0.0
 11
1860.289310874558
 21
-1594.922463057476
 31
0.0
  0
LINE
  5
484
  8
ZUWAKU
 62
     4
 10
1860.289310874558
 20
-1594.922463057476
 30
0.0
 11
1858.401219353455
 21
-1594.369685635485
 31
0.0
  0
LINE
  5
485
  8
ZUWAKU
 62
     4
 10
1858.401219353455
 20
-1594.369685635485
 30
0.0
 11
1856.475213931092
 21
-1593.933227412766
 31
0.0
  0
LINE
  5
486
  8
ZUWAKU
 62
     4
 10
1856.475213931092
 20
-1593.933227412766
 30
0.0
 11
1854.525952671679
 21
-1593.616410099893
 31
0.0
  0
LINE
  5
487
  8
ZUWAKU
 62
     4
 10
1854.525952671679
 20
-1593.616410099893
 30
0.0
 11
1852.568270630406
 21
-1593.421644867957
 31
0.0
  0
LINE
  5
488
  8
ZUWAKU
 62
     4
 10
1852.568270630406
 20
-1593.421644867957
 30
0.0
 11
1850.617066949677
 21
-1593.350413997942
 31
0.0
  0
LINE
  5
489
  8
ZUWAKU
 62
     4
 10
1850.617066949677
 20
-1593.350413997942
 30
0.0
 11
1848.687191467675
 21
-1593.403259599799
 31
0.0
  0
LINE
  5
48A
  8
ZUWAKU
 62
     4
 10
1848.687191467675
 20
-1593.403259599799
 30
0.0
 11
1846.793331702117
 21
-1593.579779486582
 31
0.0
  0
LINE
  5
48B
  8
ZUWAKU
 62
     4
 10
1846.793331702117
 20
-1593.579779486582
 30
0.0
 11
1844.949901069357
 21
-1593.878630235354
 31
0.0
  0
LINE
  5
48C
  8
ZUWAKU
 62
     4
 10
1844.949901069357
 20
-1593.878630235354
 30
0.0
 11
1843.1709291896
 21
-1594.297537411499
 31
0.0
  0
LINE
  5
48D
  8
ZUWAKU
 62
     4
 10
1843.1709291896
 20
-1594.297537411499
 30
0.0
 11
1841.469955113032
 21
-1594.833312878435
 31
0.0
  0
LINE
  5
48E
  8
ZUWAKU
 62
     4
 10
1841.469955113032
 20
-1594.833312878435
 30
0.0
 11
1839.859924279442
 21
-1595.48187906136
 31
0.0
  0
LINE
  5
48F
  8
ZUWAKU
 62
     4
 10
1839.859924279442
 20
-1595.48187906136
 30
0.0
 11
1838.353089995644
 21
-1596.238299979998
 31
0.0
  0
LINE
  5
490
  8
ZUWAKU
 62
     4
 10
1838.353089995644
 20
-1596.238299979998
 30
0.0
 11
1836.960920180384
 21
-1597.09681881443
 31
0.0
  0
LINE
  5
491
  8
ZUWAKU
 62
     4
 10
1836.960920180384
 20
-1597.09681881443
 30
0.0
 11
1835.694010086578
 21
-1598.050901717933
 31
0.0
  0
LINE
  5
492
  8
ZUWAKU
 62
     4
 10
1835.694010086578
 20
-1598.050901717933
 30
0.0
 11
1834.562001665012
 21
-1599.093287543527
 31
0.0
  0
LINE
  5
493
  8
ZUWAKU
 62
     4
 10
1834.562001665012
 20
-1599.093287543527
 30
0.0
 11
1833.773250710962
 21
-1599.989172371258
 31
0.0
  0
LINE
  5
494
  8
ZUWAKU
 62
     4
 10
1832.679243913518
 20
-1601.515667628356
 30
0.0
 11
1832.056020602377
 21
-1602.66793741771
 31
0.0
  0
LINE
  5
495
  8
ZUWAKU
 62
     4
 10
1832.056020602377
 20
-1602.66793741771
 30
0.0
 11
1832.004648778261
 21
-1602.798040388528
 31
0.0
  0
LINE
  5
496
  8
ZUWAKU
 62
     4
 10
1831.46459335943
 20
-1604.263783899157
 30
0.0
 11
1831.187649496816
 21
-1605.332085086137
 31
0.0
  0
LINE
  5
497
  8
ZUWAKU
 62
     4
 10
1831.187649496816
 20
-1605.332085086137
 30
0.0
 11
1831.005925275827
 21
-1606.718643121004
 31
0.0
  0
LINE
  5
498
  8
ZUWAKU
 62
     4
 10
1831.005925275827
 20
-1606.718643121004
 30
0.0
 11
1830.994781883237
 21
-1608.127537332167
 31
0.0
  0
LINE
  5
499
  8
ZUWAKU
 62
     4
 10
1830.994781883237
 20
-1608.127537332167
 30
0.0
 11
1831.154304126996
 21
-1609.548045183942
 31
0.0
  0
LINE
  5
49A
  8
ZUWAKU
 62
     4
 10
1831.154304126996
 20
-1609.548045183942
 30
0.0
 11
1831.483277946497
 21
-1610.969355753853
 31
0.0
  0
LINE
  5
49B
  8
ZUWAKU
 62
     4
 10
1831.483277946497
 20
-1610.969355753853
 30
0.0
 11
1831.97919965234
 21
-1612.380652010276
 31
0.0
  0
LINE
  5
49C
  8
ZUWAKU
 62
     4
 10
1831.97919965234
 20
-1612.380652010276
 30
0.0
 11
1832.638294980896
 21
-1613.771193136515
 31
0.0
  0
LINE
  5
49D
  8
ZUWAKU
 62
     4
 10
1832.638294980896
 20
-1613.771193136515
 30
0.0
 11
1833.455547818743
 21
-1615.130396274965
 31
0.0
  0
LINE
  5
49E
  8
ZUWAKU
 62
     4
 10
1833.455547818743
 20
-1615.130396274965
 30
0.0
 11
1834.424738378317
 21
-1616.447917069038
 31
0.0
  0
LINE
  5
49F
  8
ZUWAKU
 62
     4
 10
1834.424738378317
 20
-1616.447917069038
 30
0.0
 11
1835.53849053424
 21
-1617.713728389955
 31
0.0
  0
LINE
  5
4A0
  8
ZUWAKU
 62
     4
 10
1835.53849053424
 20
-1617.713728389955
 30
0.0
 11
1836.788327960113
 21
-1618.918196649242
 31
0.0
  0
LINE
  5
4A1
  8
ZUWAKU
 62
     4
 10
1836.788327960113
 20
-1618.918196649242
 30
0.0
 11
1838.16473863844
 21
-1620.052155116177
 31
0.0
  0
LINE
  5
4A2
  8
ZUWAKU
 62
     4
 10
1838.16473863844
 20
-1620.052155116177
 30
0.0
 11
1839.657247252869
 21
-1621.106973682115
 31
0.0
  0
LINE
  5
4A3
  8
ZUWAKU
 62
     4
 10
1839.657247252869
 20
-1621.106973682115
 30
0.0
 11
1841.254494911636
 21
-1622.074624540853
 31
0.0
  0
LINE
  5
4A4
  8
ZUWAKU
 62
     4
 10
1841.254494911636
 20
-1622.074624540853
 30
0.0
 11
1842.944325595624
 21
-1622.947743285063
 31
0.0
  0
LINE
  5
4A5
  8
ZUWAKU
 62
     4
 10
1842.944325595624
 20
-1622.947743285063
 30
0.0
 11
1844.713878672965
 21
-1623.719684953913
 31
0.0
  0
LINE
  5
4A6
  8
ZUWAKU
 62
     4
 10
1844.713878672965
 20
-1623.719684953913
 30
0.0
 11
1846.549686776271
 21
-1624.384574605186
 31
0.0
  0
LINE
  5
4A7
  8
ZUWAKU
 62
     4
 10
1846.549686776271
 20
-1624.384574605186
 30
0.0
 11
1848.437778297366
 21
-1624.937352027177
 31
0.0
  0
LINE
  5
4A8
  8
ZUWAKU
 62
     4
 10
1848.437778297366
 20
-1624.937352027177
 30
0.0
 11
1850.363783719737
 21
-1625.373810249897
 31
0.0
  0
LINE
  5
4A9
  8
ZUWAKU
 62
     4
 10
1850.363783719737
 20
-1625.373810249897
 30
0.0
 11
1852.31304497915
 21
-1625.690627562769
 31
0.0
  0
LINE
  5
4AA
  8
ZUWAKU
 62
     4
 10
1852.31304497915
 20
-1625.690627562769
 30
0.0
 11
1854.270727020423
 21
-1625.885392794721
 31
0.0
  0
LINE
  5
4AB
  8
ZUWAKU
 62
     4
 10
1854.270727020423
 20
-1625.885392794721
 30
0.0
 11
1856.221930701152
 21
-1625.95662366472
 31
0.0
  0
LINE
  5
4AC
  8
ZUWAKU
 62
     4
 10
1856.221930701152
 20
-1625.95662366472
 30
0.0
 11
1858.151806183146
 21
-1625.90377806288
 31
0.0
  0
LINE
  5
4AD
  8
ZUWAKU
 62
     4
 10
1858.151806183146
 20
-1625.90377806288
 30
0.0
 11
1860.045665948704
 21
-1625.727258176096
 31
0.0
  0
LINE
  5
4AE
  8
ZUWAKU
 62
     4
 10
1860.045665948704
 20
-1625.727258176096
 30
0.0
 11
1861.889096581472
 21
-1625.428407427308
 31
0.0
  0
LINE
  5
4AF
  8
ZUWAKU
 62
     4
 10
1861.889096581472
 20
-1625.428407427308
 30
0.0
 11
1863.668068461228
 21
-1625.00950025118
 31
0.0
  0
LINE
  5
4B0
  8
ZUWAKU
 62
     4
 10
1863.668068461228
 20
-1625.00950025118
 30
0.0
 11
1865.369042537797
 21
-1624.473724784227
 31
0.0
  0
LINE
  5
4B1
  8
ZUWAKU
 62
     4
 10
1865.369042537797
 20
-1624.473724784227
 30
0.0
 11
1866.979073371387
 21
-1623.825158601318
 31
0.0
  0
LINE
  5
4B2
  8
ZUWAKU
 62
     4
 10
1866.979073371387
 20
-1623.825158601318
 30
0.0
 11
1868.485907655185
 21
-1623.068737682664
 31
0.0
  0
LINE
  5
4B3
  8
ZUWAKU
 62
     4
 10
1868.485907655185
 20
-1623.068737682664
 30
0.0
 11
1869.878077470445
 21
-1622.210218848232
 31
0.0
  0
LINE
  5
4B4
  8
ZUWAKU
 62
     4
 10
1869.878077470445
 20
-1622.210218848232
 30
0.0
 11
1871.144987564251
 21
-1621.256135944729
 31
0.0
  0
LINE
  5
4B5
  8
ZUWAKU
 62
     4
 10
1871.144987564251
 20
-1621.256135944729
 30
0.0
 11
1872.276995985817
 21
-1620.213750119135
 31
0.0
  0
LINE
  5
4B6
  8
ZUWAKU
 62
     4
 10
1872.276995985817
 20
-1620.213750119135
 30
0.0
 11
1872.46358168974
 21
-1620.001820992006
 31
0.0
  0
LINE
  5
4B7
  8
ZUWAKU
 62
     4
 10
1873.51649520091
 20
-1618.732945258095
 30
0.0
 11
1874.102938992322
 21
-1617.896414106096
 31
0.0
  0
LINE
  5
4B8
  8
ZUWAKU
 62
     4
 10
1874.102938992322
 20
-1617.896414106096
 30
0.0
 11
1874.782977048451
 21
-1616.639100244952
 31
0.0
  0
LINE
  5
4B9
  8
ZUWAKU
 62
     4
 10
1874.782977048451
 20
-1616.639100244952
 30
0.0
 11
1874.851063375157
 21
-1616.466666551402
 31
0.0
  0
LINE
  5
4BA
  8
ZUWAKU
 62
     4
 10
1875.42837196331
 20
-1614.83507537162
 30
0.0
 11
1875.651348154013
 21
-1613.974952576525
 31
0.0
  0
LINE
  5
4BB
  8
ZUWAKU
 62
     4
 10
1828.909343724979
 20
-1608.867132643119
 30
0.0
 11
1828.715086799098
 21
-1610.349315370056
 31
0.0
  0
LINE
  5
4BC
  8
ZUWAKU
 62
     4
 10
1828.715086799098
 20
-1610.349315370056
 30
0.0
 11
1828.703174896671
 21
-1611.855374699225
 31
0.0
  0
LINE
  5
4BD
  8
ZUWAKU
 62
     4
 10
1828.703174896671
 20
-1611.855374699225
 30
0.0
 11
1828.873698674482
 21
-1613.373848609736
 31
0.0
  0
LINE
  5
4BE
  8
ZUWAKU
 62
     4
 10
1828.873698674482
 20
-1613.373848609736
 30
0.0
 11
1829.225360343602
 21
-1614.893180598268
 31
0.0
  0
LINE
  5
4BF
  8
ZUWAKU
 62
     4
 10
1829.225360343602
 20
-1614.893180598268
 30
0.0
 11
1829.755483546404
 21
-1616.401807630994
 31
0.0
  0
LINE
  5
4C0
  8
ZUWAKU
 62
     4
 10
1829.755483546404
 20
-1616.401807630994
 30
0.0
 11
1830.460033725207
 21
-1617.888248145241
 31
0.0
  0
LINE
  5
4C1
  8
ZUWAKU
 62
     4
 10
1830.460033725207
 20
-1617.888248145241
 30
0.0
 11
1831.333648827731
 21
-1619.341189431184
 31
0.0
  0
LINE
  5
4C2
  8
ZUWAKU
 62
     4
 10
1831.333648827731
 20
-1619.341189431184
 30
0.0
 11
1832.369680115551
 21
-1620.749573728302
 31
0.0
  0
LINE
  5
4C3
  8
ZUWAKU
 62
     4
 10
1832.369680115551
 20
-1620.749573728302
 30
0.0
 11
1833.560242764989
 21
-1622.102682381682
 31
0.0
  0
LINE
  5
4C4
  8
ZUWAKU
 62
     4
 10
1833.560242764989
 20
-1622.102682381682
 30
0.0
 11
1834.896275875402
 21
-1623.390217417486
 31
0.0
  0
LINE
  5
4C5
  8
ZUWAKU
 62
     4
 10
1834.896275875402
 20
-1623.390217417486
 30
0.0
 11
1836.367611428099
 21
-1624.60237991661
 31
0.0
  0
LINE
  5
4C6
  8
ZUWAKU
 62
     4
 10
1836.367611428099
 20
-1624.60237991661
 30
0.0
 11
1837.963051671105
 21
-1625.729944590551
 31
0.0
  0
LINE
  5
4C7
  8
ZUWAKU
 62
     4
 10
1837.963051671105
 20
-1625.729944590551
 30
0.0
 11
1839.670454340823
 21
-1626.764329991264
 31
0.0
  0
LINE
  5
4C8
  8
ZUWAKU
 62
     4
 10
1839.670454340823
 20
-1626.764329991264
 30
0.0
 11
1841.476825071983
 21
-1627.697663821294
 31
0.0
  0
LINE
  5
4C9
  8
ZUWAKU
 62
     4
 10
1841.476825071983
 20
-1627.697663821294
 30
0.0
 11
1843.368416292587
 21
-1628.522842846619
 31
0.0
  0
LINE
  5
4CA
  8
ZUWAKU
 62
     4
 10
1843.368416292587
 20
-1628.522842846619
 30
0.0
 11
1845.330831851294
 21
-1629.233586956591
 31
0.0
  0
LINE
  5
4CB
  8
ZUWAKU
 62
     4
 10
1845.330831851294
 20
-1629.233586956591
 30
0.0
 11
1847.349136580744
 21
-1629.824486959412
 31
0.0
  0
LINE
  5
4CC
  8
ZUWAKU
 62
     4
 10
1847.349136580744
 20
-1629.824486959412
 30
0.0
 11
1849.407969963272
 21
-1630.291045749226
 31
0.0
  0
LINE
  5
4CD
  8
ZUWAKU
 62
     4
 10
1849.407969963272
 20
-1630.291045749226
 30
0.0
 11
1851.491663033682
 21
-1630.629712531941
 31
0.0
  0
LINE
  5
4CE
  8
ZUWAKU
 62
     4
 10
1851.491663033682
 20
-1630.629712531941
 30
0.0
 11
1853.584357629527
 21
-1630.837909848838
 31
0.0
  0
LINE
  5
4CF
  8
ZUWAKU
 62
     4
 10
1853.584357629527
 20
-1630.837909848838
 30
0.0
 11
1855.670127081336
 21
-1630.914053192652
 31
0.0
  0
LINE
  5
4D0
  8
ZUWAKU
 62
     4
 10
1855.670127081336
 20
-1630.914053192652
 30
0.0
 11
1857.733097424166
 21
-1630.857563066528
 31
0.0
  0
LINE
  5
4D1
  8
ZUWAKU
 62
     4
 10
1857.733097424166
 20
-1630.857563066528
 30
0.0
 11
1859.757568208041
 21
-1630.668869394453
 31
0.0
  0
LINE
  5
4D2
  8
ZUWAKU
 62
     4
 10
1859.757568208041
 20
-1630.668869394453
 30
0.0
 11
1861.728131987886
 21
-1630.349408249208
 31
0.0
  0
LINE
  5
4D3
  8
ZUWAKU
 62
     4
 10
1861.728131987886
 20
-1630.349408249208
 30
0.0
 11
1863.629791583486
 21
-1629.901610922984
 31
0.0
  0
LINE
  5
4D4
  8
ZUWAKU
 62
     4
 10
1863.629791583486
 20
-1629.901610922984
 30
0.0
 11
1865.448074217064
 21
-1629.328885423844
 31
0.0
  0
LINE
  5
4D5
  8
ZUWAKU
 62
     4
 10
1865.448074217064
 20
-1629.328885423844
 30
0.0
 11
1867.169141659866
 21
-1628.635590538658
 31
0.0
  0
LINE
  5
4D6
  8
ZUWAKU
 62
     4
 10
1867.169141659866
 20
-1628.635590538658
 30
0.0
 11
1868.779895549444
 21
-1627.827002660099
 31
0.0
  0
LINE
  5
4D7
  8
ZUWAKU
 62
     4
 10
1868.779895549444
 20
-1627.827002660099
 30
0.0
 11
1870.2680770761
 21
-1626.909275630193
 31
0.0
  0
LINE
  5
4D8
  8
ZUWAKU
 62
     4
 10
1870.2680770761
 20
-1626.909275630193
 30
0.0
 11
1871.622360279825
 21
-1625.889393905761
 31
0.0
  0
LINE
  5
4D9
  8
ZUWAKU
 62
     4
 10
1871.622360279825
 20
-1625.889393905761
 30
0.0
 11
1872.820161216036
 21
-1624.78642444547
 31
0.0
  0
LINE
  5
4DA
  8
ZUWAKU
 62
     4
 10
1869.995759042281
 20
-1609.402462450583
 30
0.0
 11
1875.42837196331
 21
-1614.83507537162
 31
0.0
  0
LINE
  5
4DB
  8
ZUWAKU
 62
     4
 10
1876.669005430244
 20
-1616.075708838554
 30
0.0
 11
1884.622008324086
 21
-1624.028711732389
 31
0.0
  0
LINE
  5
4DC
  8
ZUWAKU
 62
     4
 10
1868.891309158301
 20
-1610.506912334563
 30
0.0
 11
1874.851063375157
 21
-1616.466666551402
 31
0.0
  0
LINE
  5
4DD
  8
ZUWAKU
 62
     4
 10
1875.992687966724
 20
-1617.608291142978
 30
0.0
 11
1878.321530261545
 21
-1619.937133437791
 31
0.0
  0
LINE
  5
4DE
  8
ZUWAKU
 62
     4
 10
1877.945490882401
 20
-1616.247744406731
 30
0.0
 11
1886.879542538427
 21
-1625.18179606275
 31
0.0
  0
LINE
  5
4DF
  8
ZUWAKU
 62
     4
 10
1817.85268684855
 20
-1599.337449172105
 30
0.0
 11
1817.275202073406
 21
-1602.308350791263
 31
0.0
  0
LINE
  5
4E0
  8
ZUWAKU
 62
     4
 10
1831.787686423404
 20
-1598.857136181462
 30
0.0
 11
1832.702366664887
 21
-1597.81821743739
 31
0.0
  0
LINE
  5
4E1
  8
ZUWAKU
 62
     4
 10
1832.702366664887
 20
-1597.81821743739
 30
0.0
 11
1833.970932831933
 21
-1596.65008532268
 31
0.0
  0
LINE
  5
4E2
  8
ZUWAKU
 62
     4
 10
1833.970932831933
 20
-1596.65008532268
 30
0.0
 11
1835.385030475773
 21
-1595.585158622304
 31
0.0
  0
LINE
  5
4E3
  8
ZUWAKU
 62
     4
 10
1835.385030475773
 20
-1595.585158622304
 30
0.0
 11
1836.933154047229
 21
-1594.630466723686
 31
0.0
  0
LINE
  5
4E4
  8
ZUWAKU
 62
     4
 10
1836.933154047229
 20
-1594.630466723686
 30
0.0
 11
1838.603147636507
 21
-1593.792140904768
 31
0.0
  0
LINE
  5
4E5
  8
ZUWAKU
 62
     4
 10
1838.603147636507
 20
-1593.792140904768
 30
0.0
 11
1840.382233139526
 21
-1593.075474695826
 31
0.0
  0
LINE
  5
4E6
  8
ZUWAKU
 62
     4
 10
1840.382233139526
 20
-1593.075474695826
 30
0.0
 11
1842.257034440288
 21
-1592.484946858772
 31
0.0
  0
LINE
  5
4E7
  8
ZUWAKU
 62
     4
 10
1842.257034440288
 20
-1592.484946858772
 30
0.0
 11
1844.213612173954
 21
-1592.024217567526
 31
0.0
  0
LINE
  5
4E8
  8
ZUWAKU
 62
     4
 10
1844.213612173954
 20
-1592.024217567526
 30
0.0
 11
1846.23751501744
 21
-1591.696109273406
 31
0.0
  0
LINE
  5
4E9
  8
ZUWAKU
 62
     4
 10
1846.23751501744
 20
-1591.696109273406
 30
0.0
 11
1848.313848093552
 21
-1591.502581702799
 31
0.0
  0
LINE
  5
4EA
  8
ZUWAKU
 62
     4
 10
1848.313848093552
 20
-1591.502581702799
 30
0.0
 11
1850.427356381729
 21
-1591.444707700789
 31
0.0
  0
LINE
  5
4EB
  8
ZUWAKU
 62
     4
 10
1850.427356381729
 20
-1591.444707700789
 30
0.0
 11
1852.562520016613
 21
-1591.522654234429
 31
0.0
  0
LINE
  5
4EC
  8
ZUWAKU
 62
     4
 10
1852.562520016613
 20
-1591.522654234429
 30
0.0
 11
1854.703658222614
 21
-1591.73567109341
 31
0.0
  0
LINE
  5
4ED
  8
ZUWAKU
 62
     4
 10
1854.703658222614
 20
-1591.73567109341
 30
0.0
 11
1856.835038859696
 21
-1592.08208863127
 31
0.0
  0
LINE
  5
4EE
  8
ZUWAKU
 62
     4
 10
1856.835038859696
 20
-1592.08208863127
 30
0.0
 11
1858.940990868082
 21
-1592.55932512295
 31
0.0
  0
LINE
  5
4EF
  8
ZUWAKU
 62
     4
 10
1858.940990868082
 20
-1592.55932512295
 30
0.0
 11
1861.006017162961
 21
-1593.163903819944
 31
0.0
  0
LINE
  5
4F0
  8
ZUWAKU
 62
     4
 10
1861.006017162961
 20
-1593.163903819944
 30
0.0
 11
1863.014905697529
 21
-1593.891479428084
 31
0.0
  0
LINE
  5
4F1
  8
ZUWAKU
 62
     4
 10
1863.014905697529
 20
-1593.891479428084
 30
0.0
 11
1864.952836476075
 21
-1594.736873408324
 31
0.0
  0
LINE
  5
4F2
  8
ZUWAKU
 62
     4
 10
1864.952836476075
 20
-1594.736873408324
 30
0.0
 11
1866.805482276997
 21
-1595.694117107655
 31
0.0
  0
LINE
  5
4F3
  8
ZUWAKU
 62
     4
 10
1866.805482276997
 20
-1595.694117107655
 30
0.0
 11
1868.559100786358
 21
-1596.756501170113
 31
0.0
  0
LINE
  5
4F4
  8
ZUWAKU
 62
     4
 10
1868.559100786358
 20
-1596.756501170113
 30
0.0
 11
1870.20061584094
 21
-1597.916628849839
 31
0.0
  0
LINE
  5
4F5
  8
ZUWAKU
 62
     4
 10
1870.20061584094
 20
-1597.916628849839
 30
0.0
 11
1871.717685716163
 21
-1599.166469654642
 31
0.0
  0
LINE
  5
4F6
  8
ZUWAKU
 62
     4
 10
1871.717685716163
 20
-1599.166469654642
 30
0.0
 11
1872.898712324155
 21
-1600.30462493249
 31
0.0
  0
LINE
  5
4F7
  8
ZUWAKU
 62
     4
 10
1828.909343724979
 20
-1608.867132643119
 30
0.0
 11
1829.037829712144
 21
-1608.206129541833
 31
0.0
  0
LINE
  5
4F8
  8
ZUWAKU
 62
     4
 10
1878.005355606911
 20
-1609.75966281532
 30
0.0
 11
1878.172057788247
 21
-1611.244106313158
 31
0.0
  0
LINE
  5
4F9
  8
ZUWAKU
 62
     4
 10
1878.172057788247
 20
-1611.244106313158
 30
0.0
 11
1878.159397128175
 21
-1612.844833430286
 31
0.0
  0
LINE
  5
4FA
  8
ZUWAKU
 62
     4
 10
1878.159397128175
 20
-1612.844833430286
 30
0.0
 11
1877.958920992024
 21
-1614.37446880784
 31
0.0
  0
LINE
  5
4FB
  8
ZUWAKU
 62
     4
 10
1877.958920992024
 20
-1614.37446880784
 30
0.0
 11
1877.731100330302
 21
-1615.546504508017
 31
0.0
  0
ARC
  5
4FC
  8
ZUWAKU
 62
     4
 10
1878.497715824391
 20
-1615.695519464741
 30
0.0
 40
0.7809640024405123
 50
168.9999999999997
 51
224.9999999999998
  0
LINE
  5
4FD
  8
ZUWAKU
 62
     4
 10
1886.562914580041
 20
-1628.614889372132
 30
0.0
 11
1887.093933090526
 21
-1625.883035961463
 31
0.0
  0
ARC
  5
4FE
  8
ZUWAKU
 62
     4
 10
1886.327317596437
 20
-1625.73402100474
 30
0.0
 40
0.7809640024405123
 50
349.0000000000001
 51
405.0000000000001
  0
ARC
  5
4FF
  8
ZUWAKU
 62
     4
 10
1869.995759042281
 20
-1609.402462450583
 30
0.0
 40
1.561928004881025
 50
114.9999999999996
 51
225.0
  0
ARC
  5
500
  8
ZUWAKU
 62
     4
 10
1869.995759042281
 20
-1609.402462450583
 30
0.0
 40
2.342892007321516
 50
138.0853946908566
 51
168.9999999999998
  0
ARC
  5
501
  8
ZUWAKU
 62
     4
 10
1867.671168819007
 20
-1607.315657077862
 30
0.0
 40
0.7809640024405123
 50
318.0853946908566
 51
448.1000000000001
  0
LINE
  5
502
  8
ZUWAKU
 62
     4
 10
1832.055407287505
 20
-1609.977897702064
 30
0.0
 11
1832.234390895368
 21
-1610.751185053873
 31
0.0
  0
LINE
  5
503
  8
ZUWAKU
 62
     4
 10
1832.234390895368
 20
-1610.751185053873
 30
0.0
 11
1832.702431546392
 21
-1612.083137277084
 31
0.0
  0
LINE
  5
504
  8
ZUWAKU
 62
     4
 10
1832.702431546392
 20
-1612.083137277084
 30
0.0
 11
1833.327472977369
 21
-1613.401832430453
 31
0.0
  0
LINE
  5
505
  8
ZUWAKU
 62
     4
 10
1833.327472977369
 20
-1613.401832430453
 30
0.0
 11
1834.106140977053
 21
-1614.696863710823
 31
0.0
  0
LINE
  5
506
  8
ZUWAKU
 62
     4
 10
1834.106140977053
 20
-1614.696863710823
 30
0.0
 11
1835.033601524022
 21
-1615.957656590253
 31
0.0
  0
LINE
  5
507
  8
ZUWAKU
 62
     4
 10
1835.033601524022
 20
-1615.957656590253
 30
0.0
 11
1836.103567615379
 21
-1617.173703790907
 31
0.0
  0
LINE
  5
508
  8
ZUWAKU
 62
     4
 10
1836.103567615379
 20
-1617.173703790907
 30
0.0
 11
1837.308366684508
 21
-1618.334768588265
 31
0.0
  0
LINE
  5
509
  8
ZUWAKU
 62
     4
 10
1837.308366684508
 20
-1618.334768588265
 30
0.0
 11
1838.639043040308
 21
-1619.43104874952
 31
0.0
  0
LINE
  5
50A
  8
ZUWAKU
 62
     4
 10
1838.639043040308
 20
-1619.43104874952
 30
0.0
 11
1840.085476843161
 21
-1620.453304309655
 31
0.0
  0
LINE
  5
50B
  8
ZUWAKU
 62
     4
 10
1840.085476843161
 20
-1620.453304309655
 30
0.0
 11
1841.636508662286
 21
-1621.392956506649
 31
0.0
  0
LINE
  5
50C
  8
ZUWAKU
 62
     4
 10
1841.636508662286
 20
-1621.392956506649
 30
0.0
 11
1843.280064276519
 21
-1622.242165381574
 31
0.0
  0
LINE
  5
50D
  8
ZUWAKU
 62
     4
 10
1843.280064276519
 20
-1622.242165381574
 30
0.0
 11
1845.003277795919
 21
-1622.993892095493
 31
0.0
  0
LINE
  5
50E
  8
ZUWAKU
 62
     4
 10
1845.003277795919
 20
-1622.993892095493
 30
0.0
 11
1846.792612923356
 21
-1623.641950248614
 31
0.0
  0
LINE
  5
50F
  8
ZUWAKU
 62
     4
 10
1846.792612923356
 20
-1623.641950248614
 30
0.0
 11
1848.63398287903
 21
-1624.181048976417
 31
0.0
  0
LINE
  5
510
  8
ZUWAKU
 62
     4
 10
1848.63398287903
 20
-1624.181048976417
 30
0.0
 11
1850.512869675535
 21
-1624.606829497286
 31
0.0
  0
LINE
  5
511
  8
ZUWAKU
 62
     4
 10
1850.512869675535
 20
-1624.606829497286
 30
0.0
 11
1852.414443368275
 21
-1624.915896054997
 31
0.0
  0
LINE
  5
512
  8
ZUWAKU
 62
     4
 10
1852.414443368275
 20
-1624.915896054997
 30
0.0
 11
1854.3236817994
 21
-1625.105841744881
 31
0.0
  0
LINE
  5
513
  8
ZUWAKU
 62
     4
 10
1854.3236817994
 20
-1625.105841744881
 30
0.0
 11
1856.225491297047
 21
-1625.175269425055
 31
0.0
  0
LINE
  5
514
  8
ZUWAKU
 62
     4
 10
1856.225491297047
 20
-1625.175269425055
 30
0.0
 11
1858.104828833702
 21
-1625.123807699084
 31
0.0
  0
LINE
  5
515
  8
ZUWAKU
 62
     4
 10
1858.104828833702
 20
-1625.123807699084
 30
0.0
 11
1859.946826307007
 21
-1624.95212171085
 31
0.0
  0
LINE
  5
516
  8
ZUWAKU
 62
     4
 10
1859.946826307007
 20
-1624.95212171085
 30
0.0
 11
1861.736917876141
 21
-1624.661918110919
 31
0.0
  0
LINE
  5
517
  8
ZUWAKU
 62
     4
 10
1861.736917876141
 20
-1624.661918110919
 30
0.0
 11
1863.460971617823
 21
-1624.255942899813
 31
0.0
  0
LINE
  5
518
  8
ZUWAKU
 62
     4
 10
1863.460971617823
 20
-1624.255942899813
 30
0.0
 11
1865.105427027216
 21
-1623.73796977079
 31
0.0
  0
LINE
  5
519
  8
ZUWAKU
 62
     4
 10
1866.286501136116
 20
-1623.262199549153
 30
0.0
 11
1865.105427027216
 21
-1623.73796977079
 31
0.0
  0
LINE
  5
51A
  8
ZUWAKU
 62
     4
 10
1867.773753948065
 20
-1613.967509378422
 30
0.0
 11
1869.533408412754
 21
-1615.727163843111
 31
0.0
  0
LINE
  5
51B
  8
ZUWAKU
 62
     4
 10
1867.695912560006
 20
-1608.95541758038
 30
0.0
 11
1867.13058229176
 21
-1611.863789682265
 31
0.0
  0
ARC
  5
51C
  8
ZUWAKU
 62
     4
 10
1869.430428774027
 20
-1612.310834552452
 30
0.0
 40
2.342892007321537
 50
168.9999999999998
 51
224.9999999999996
  0
LINE
  5
51D
  8
ZUWAKU
 62
     4
 10
1820.912849172643
 20
-1599.562548913328
 30
0.0
 11
1831.949988327033
 21
-1599.928688528619
 31
0.0
  0
LINE
  5
51E
  8
ZUWAKU
 62
     4
 10
1833.773250710962
 20
-1599.989172371258
 30
0.0
 11
1870.914457305515
 21
-1601.221273090788
 31
0.0
  0
LINE
  5
51F
  8
ZUWAKU
 62
     4
 10
1872.748982905686
 20
-1601.282130572804
 30
0.0
 11
1885.195797020512
 21
-1601.695033922822
 31
0.0
  0
LINE
  5
520
  8
ZUWAKU
 62
     4
 10
1885.316965345779
 20
-1602.290595268701
 30
0.0
 11
1876.229649927674
 21
-1606.508786644306
 31
0.0
  0
LINE
  5
521
  8
ZUWAKU
 62
     4
 10
1874.925739329191
 20
-1607.114041792612
 30
0.0
 11
1869.995759042281
 21
-1609.402462450583
 31
0.0
  0
ARC
  5
522
  8
ZUWAKU
 62
     4
 10
1885.185439820186
 20
-1602.007247779172
 30
0.0
 40
0.3123856009762049
 50
294.9000000000007
 51
448.0999999999997
  0
LINE
  5
523
  8
ZUWAKU
 62
     4
 10
1884.289169359999
 20
-1624.541238791776
 30
0.0
 11
1873.91483335774
 21
-1620.558904313138
 31
0.0
  0
LINE
  5
524
  8
ZUWAKU
 62
     4
 10
1872.463581689748
 20
-1620.001820992006
 30
0.0
 11
1831.46459335943
 21
-1604.263783899157
 31
0.0
  0
LINE
  5
525
  8
ZUWAKU
 62
     4
 10
1829.9998603197
 20
-1603.701525564274
 30
0.0
 11
1820.79054298503
 21
-1600.166399852266
 31
0.0
  0
ARC
  5
526
  8
ZUWAKU
 62
     4
 10
1820.902491972318
 20
-1599.874762769679
 30
0.0
 40
0.3123856009762049
 50
90.00000000000003
 51
249.0000000000023
  0
ARC
  5
527
  8
ZUWAKU
 62
     4
 10
1884.401118347287
 20
-1624.249601709188
 30
0.0
 40
0.3123856009762049
 50
249.0000000000006
 51
405.0
  0
LINE
  5
528
  8
ZUWAKU
 62
     4
 10
1873.414743504965
 20
-1600.52282252633
 30
0.0
 11
1887.322710439192
 21
-1600.984197307563
 31
0.0
  0
ARC
  5
529
  8
ZUWAKU
 62
     4
 10
1873.440636505782
 20
-1599.742287885446
 30
0.0
 40
0.7809640024405123
 50
226.0590228224399
 51
268.1000000000001
  0
LINE
  5
52A
  8
ZUWAKU
 62
     4
 10
1818.645195343456
 20
-1598.705929487945
 30
0.0
 11
1831.175634013416
 21
-1599.121606950174
 31
0.0
  0
ARC
  5
52B
  8
ZUWAKU
 62
     4
 10
1818.619302342639
 20
-1599.486464128829
 30
0.0
 40
0.7809640024405123
 50
88.10000000000028
 51
168.9999999999999
  0
ARC
  5
52C
  8
ZUWAKU
 62
     4
 10
1831.201527014234
 20
-1598.341072309307
 30
0.0
 40
0.7809640024405123
 50
268.1000000000004
 51
318.638806595188
  0
LINE
  5
52D
  8
ZUWAKU
 62
     4
 10
1888.063432932472
 20
-1601.91374690517
 30
0.0
 11
1887.586318284343
 21
-1604.368288984238
 31
0.0
  0
ARC
  5
52E
  8
ZUWAKU
 62
     4
 10
1887.296817438375
 20
-1601.764731948447
 30
0.0
 40
0.7809640024405123
 50
349.0000000000001
 51
448.1
  0
LINE
  5
52F
  8
ZUWAKU
 62
     4
 10
1887.148516604233
 20
-1604.927642751295
 30
0.0
 11
1878.452627455237
 21
-1608.964140102159
 31
0.0
  0
ARC
  5
530
  8
ZUWAKU
 62
     4
 10
1886.819702790254
 20
-1604.219274027514
 30
0.0
 40
0.7809640024405123
 50
294.9000000000004
 51
349.0000000000001
  0
ARC
  5
531
  8
ZUWAKU
 62
     4
 10
1878.781441269216
 20
-1609.672508825956
 30
0.0
 40
0.7809640024405123
 50
114.9
 51
186.40743915255
  0
LINE
  5
532
  8
ZUWAKU
 62
     4
 10
1877.988691297458
 20
-1620.449660497178
 30
0.0
 11
1874.954492572734
 21
-1619.28494073162
 31
0.0
  0
ARC
  5
533
  8
ZUWAKU
 62
     4
 10
1878.100640284746
 20
-1620.15802341459
 30
0.0
 40
0.3123856009762049
 50
248.999999999998
 51
405.000000000001
  0
LINE
  5
534
  8
ZUWAKU
 62
     4
 10
1873.51649520091
 20
-1618.732945258095
 30
0.0
 11
1832.004648778261
 21
-1602.798040388528
 31
0.0
  0
LINE
  5
535
  8
ZUWAKU
 62
     4
 10
1830.560038881361
 20
-1602.243506604455
 30
0.0
 11
1828.284128989453
 21
-1601.369866649965
 31
0.0
  0
LINE
  5
536
  8
ZUWAKU
 62
     4
 10
1869.200569448675
 20
-1616.239690902498
 30
0.0
 11
1846.003708967151
 21
-1607.33525043791
 31
0.0
  0
ARC
  5
537
  8
ZUWAKU
 62
     4
 10
1869.312518435963
 20
-1615.948053819911
 30
0.0
 40
0.3123856009762049
 50
249.0000000000001
 51
404.9999999999984
  0
LINE
  5
538
  8
ZUWAKU
 62
     4
 10
1817.761945099271
 20
-1603.186458454472
 30
0.0
 11
1828.55108668628
 21
-1607.328021878623
 31
0.0
  0
ARC
  5
539
  8
ZUWAKU
 62
     4
 10
1828.271214218055
 20
-1608.057114585109
 30
0.0
 40
0.7809640024405123
 50
349.0000000000001
 51
429.0000000000001
  0
LINE
  5
53A
  8
ZUWAKU
 62
     4
 10
1833.096129207487
 20
-1609.07270024023
 30
0.0
 11
1866.274565418272
 21
-1621.808708640258
 31
0.0
  0
ARC
  5
53B
  8
ZUWAKU
 62
     4
 10
1865.994692950048
 20
-1622.537801346744
 30
0.0
 40
0.7809640024405123
 50
291.9409771775847
 51
429.0000000000001
  0
LINE
  5
53C
  8
ZUWAKU
 62
     4
 10
1873.629048250358
 20
-1624.631830095789
 30
0.0
 11
1885.516426617728
 21
-1629.194967121878
 31
0.0
  0
ARC
  5
53D
  8
ZUWAKU
 62
     4
 10
1885.796299085952
 20
-1628.465874415392
 30
0.0
 40
0.7809640024405123
 50
249.0000000000001
 51
349.0000000000001
  0
ARC
  5
53E
  8
ZUWAKU
 62
     4
 10
1873.349175782134
 20
-1625.360922802259
 30
0.0
 40
0.7809640024405123
 50
69.00000000000006
 51
132.6397603242119
  0
ARC
  5
53F
  8
ZUWAKU
 62
     4
 10
1832.816256739263
 20
-1609.8017929467
 30
0.0
 40
0.7809640024405123
 50
69.00000000000006
 51
193.0320838540856
  0
ARC
  5
540
  8
ZUWAKU
 62
     4
 10
1818.041817567495
 20
-1602.457365747986
 30
0.0
 40
0.7809640024405123
 50
168.9999999999999
 51
249.0000000000001
  0
LINE
  5
541
  8
ZUWAKU
 62
     4
 10
1832.679243913518
 20
-1601.515667628356
 30
0.0
 11
1872.395177551978
 21
-1602.833180840768
 31
0.0
  0
LINE
  5
542
  8
ZUWAKU
 62
     4
 10
1828.284128989453
 20
-1601.369866649965
 30
0.0
 11
1830.975892940435
 21
-1601.459161656915
 31
0.0
  0
LINE
  5
543
  8
ZUWAKU
 62
     4
 10
1874.268111701234
 20
-1605.697304345033
 30
0.0
 11
1869.338131414324
 21
-1607.985725003005
 31
0.0
  0
LINE
  5
544
  8
ZUWAKU
 62
     4
 10
1846.309474436184
 20
-1605.825623090556
 30
0.0
 11
1867.697061819825
 21
-1606.535122436978
 31
0.0
  0
ARC
  5
545
  8
ZUWAKU
 62
     4
 10
1846.283581435375
 20
-1606.606157731424
 30
0.0
 40
0.7809640024405123
 50
88.10000000000008
 51
249.0000000000001
  0
LINE
  5
546
  8
ZUWAKU
 62
     4
 10
1858.654296378599
 20
-1598.494992469528
 30
0.0
 11
1857.656144569804
 21
-1598.202763105946
 31
0.0
  0
LINE
  5
547
  8
ZUWAKU
 62
     4
 10
1857.656144569804
 20
-1598.202763105946
 30
0.0
 11
1855.730139147434
 21
-1597.76630488321
 31
0.0
  0
LINE
  5
548
  8
ZUWAKU
 62
     4
 10
1855.730139147434
 20
-1597.76630488321
 30
0.0
 11
1853.780877888021
 21
-1597.449487570354
 31
0.0
  0
LINE
  5
549
  8
ZUWAKU
 62
     4
 10
1853.780877888021
 20
-1597.449487570354
 30
0.0
 11
1851.823195846748
 21
-1597.254722338402
 31
0.0
  0
LINE
  5
54A
  8
ZUWAKU
 62
     4
 10
1851.823195846748
 20
-1597.254722338402
 30
0.0
 11
1849.871992166019
 21
-1597.183491468387
 31
0.0
  0
LINE
  5
54B
  8
ZUWAKU
 62
     4
 10
1849.871992166019
 20
-1597.183491468387
 30
0.0
 11
1847.942116684025
 21
-1597.236337070243
 31
0.0
  0
LINE
  5
54C
  8
ZUWAKU
 62
     4
 10
1847.942116684025
 20
-1597.236337070243
 30
0.0
 11
1846.048256918467
 21
-1597.412856957027
 31
0.0
  0
LINE
  5
54D
  8
ZUWAKU
 62
     4
 10
1846.048256918467
 20
-1597.412856957027
 30
0.0
 11
1844.204826285699
 21
-1597.711707705798
 31
0.0
  0
LINE
  5
54E
  8
ZUWAKU
 62
     4
 10
1844.204826285699
 20
-1597.711707705798
 30
0.0
 11
1843.06396172497
 21
-1597.980355207737
 31
0.0
  0
LINE
  5
54F
  8
ZUWAKU
 62
     4
 10
1843.217072012438
 20
-1599.521062589432
 30
0.0
 11
1858.408971134556
 21
-1600.02502978802
 31
0.0
  0
ARC
  5
550
  8
ZUWAKU
 62
     4
 10
1843.242965013255
 20
-1598.740527948547
 30
0.0
 40
0.7809640024405123
 50
103.2504547662732
 51
268.1000000000001
  0
ARC
  5
551
  8
ZUWAKU
 62
     4
 10
1858.434864135374
 20
-1599.244495147136
 30
0.0
 40
0.7809640024405123
 50
268.1000000000001
 51
433.6815281605993
  0
LINE
  5
552
  8
ZUWAKU
 62
     4
 10
2065.249999999985
 20
-1446.000000000026
 30
0.0
 11
2065.249999999985
 21
-1536.000000000025
 31
0.0
  0
LINE
  5
553
  8
ZUWAKU
 62
     4
 10
2002.249999999989
 20
-1446.000000000026
 30
0.0
 11
2002.249999999985
 21
-1536.000000000026
 31
0.0
  0
LINE
  5
554
  8
ZUWAKU
 62
     4
 10
1729.999999999987
 20
-1446.000000000026
 30
0.0
 11
1729.999999999987
 21
-1536.000000000026
 31
0.0
  0
LINE
  5
555
  8
ZUWAKU
 62
     4
 10
1771.999999999988
 20
-1536.000000000027
 30
0.0
 11
1771.999999999988
 21
-1662.000000000026
 31
0.0
  0
LINE
  5
556
  8
ZUWAKU
 62
     4
 10
1297.999999999986
 20
-1302.000000000026
 30
0.0
 11
1297.999999999986
 21
-1257.00000000003
 31
0.0
  0
LINE
  5
557
  8
ZUWAKU
 62
     4
 10
1657.999999999987
 20
-1302.000000000026
 30
0.0
 11
1657.999999999987
 21
-1257.00000000003
 31
0.0
  0
LINE
  5
558
  8
ZUWAKU
 62
     4
 10
1837.999999999986
 20
-1302.000000000026
 30
0.0
 11
1837.999999999986
 21
-1257.00000000003
 31
0.0
  0
LINE
  5
559
  8
ZUWAKU
 62
     4
 10
1957.999999999986
 20
-1302.000000000026
 30
0.0
 11
1957.999999999986
 21
-1257.00000000003
 31
0.0
  0
LINE
  5
55A
  8
ZUWAKU
 62
     4
 10
1177.999999999986
 20
-1197.000000000019
 30
0.0
 11
2365.999999999985
 21
-1197.000000000023
 31
0.0
  0
LINE
  5
55B
  8
ZUWAKU
 62
     4
 10
1177.999999999986
 20
-1137.00000000002
 30
0.0
 11
2365.999999999985
 21
-1137.000000000024
 31
0.0
  0
LINE
  5
55C
  8
ZUWAKU
 62
     4
 10
1177.999999999986
 20
-1077.00000000002
 30
0.0
 11
2365.999999999985
 21
-1077.000000000024
 31
0.0
  0
LINE
  5
55D
  8
ZUWAKU
 62
     4
 10
1177.999999999986
 20
-1017.000000000021
 30
0.0
 11
2365.999999999985
 21
-1017.000000000024
 31
0.0
  0
LINE
  5
55E
  8
ZUWAKU
 62
     4
 10
1177.999999999986
 20
-957.0000000000208
 30
0.0
 11
2365.999999999985
 21
-957.0000000000246
 31
0.0
  0
LINE
  5
55F
  8
ZUWAKU
 62
     4
 10
1177.999999999986
 20
-1197.000000000023
 30
0.0
 11
2365.999999999985
 21
-1197.000000000027
 31
0.0
  0
LINE
  5
560
  8
ZUWAKU
 62
     4
 10
1837.999999999987
 20
-1302.000000000022
 30
0.0
 11
1837.999999999987
 21
-957.000000000023
 31
0.0
  0
LINE
  5
561
  8
ZUWAKU
 62
     4
 10
1297.999999999986
 20
-1302.000000000022
 30
0.0
 11
1297.999999999986
 21
-957.0000000000212
 31
0.0
  0
LINE
  5
562
  8
ZUWAKU
 62
     4
 10
1657.999999999987
 20
-1302.000000000022
 30
0.0
 11
1657.999999999987
 21
-957.0000000000222
 31
0.0
  0
LINE
  5
563
  8
ZUWAKU
 62
     4
 10
1957.999999999987
 20
-1302.000000000022
 30
0.0
 11
1957.999999999987
 21
-957.0000000000234
 31
0.0
  0
LINE
  5
564
  8
ZUWAKU
 62
     4
 10
1177.999999999986
 20
-1257.000000000022
 30
0.0
 11
1177.999999999986
 21
-957.0000000000208
 31
0.0
  0
TEXT
  5
565
  8
ZUWAKU
 62
     4
 10
1195.099999999986
 20
-1365.000000000026
 30
0.0
 40
36.0
  1
図
 50
0.0000000000000496
 41
0.6666666666666656
  7
FDASTYLE0
 72
     5
 11
1223.899999999986
 21
-1365.000000000026
 31
0.0
  0
TEXT
  5
566
  8
ZUWAKU
 62
     4
 10
1195.099999999987
 20
-1419.000000000026
 30
0.0
 40
36.0
  1
名
 50
0.0000000000000496
 41
0.6666666666666656
  7
FDASTYLE0
 72
     5
 11
1223.899999999987
 21
-1419.000000000026
 31
0.0
  0
TEXT
  5
567
  8
ZUWAKU
 62
     4
 10
1195.099999999986
 20
-1491.000000000027
 30
0.0
 40
36.0
  1
尺
 50
0.0000000000000496
 41
0.6666666666666656
  7
FDASTYLE0
 72
     5
 11
1223.899999999986
 21
-1491.000000000027
 31
0.0
  0
TEXT
  5
568
  8
ZUWAKU
 62
     4
 10
1195.099999999986
 20
-1527.000000000027
 30
0.0
 40
36.0
  1
度
 50
0.0000000000000496
 41
0.6666666666666656
  7
FDASTYLE0
 72
     5
 11
1223.899999999986
 21
-1527.000000000027
 31
0.0
  0
TEXT
  5
569
  8
ZUWAKU
 62
     4
 10
1855.099999999981
 20
-1365.000000000026
 30
0.0
 40
36.0
  1
図
 50
0.0000000000000496
 41
0.6666666666666656
  7
FDASTYLE0
 72
     5
 11
1883.899999999981
 21
-1365.000000000026
 31
0.0
  0
TEXT
  5
56A
  8
ZUWAKU
 62
     4
 10
1855.099999999981
 20
-1419.000000000026
 30
0.0
 40
36.0
  1
番
 50
0.0000000000000496
 41
0.6666666666666656
  7
FDASTYLE0
 72
     5
 11
1883.899999999981
 21
-1419.000000000026
 31
0.0
  0
TEXT
  5
56B
  8
ZUWAKU
 62
     4
 10
2019.349999999985
 20
-1491.000000000026
 30
0.0
 40
36.0
  1
日
 50
0.0000000000000496
 41
0.6666666666666656
  7
FDASTYLE0
 72
     5
 11
2048.149999999985
 21
-1491.000000000026
 31
0.0
  0
TEXT
  5
56C
  8
ZUWAKU
 62
     4
 10
2019.349999999985
 20
-1527.000000000026
 30
0.0
 40
36.0
  1
付
 50
0.0000000000000496
 41
0.6666666666666656
  7
FDASTYLE0
 72
     5
 11
2048.149999999985
 21
-1527.000000000026
 31
0.0
  0
TEXT
  5
56D
  8
ZUWAKU
 62
     4
 10
2084.218853976868
 20
-1509.000000000025
 30
0.0
 40
36.0
  1
2006.06.23
 50
0.0000000000000496
 41
0.7
  7
FDASTYLE0
 72
     5
 11
2336.218853976868
 21
-1509.000000000025
 31
0.0
  0
TEXT
  5
56E
  8
ZUWAKU
 62
     4
 10
1271.599999999986
 20
-1509.000000000025
 30
0.0
 40
36.0
  1
1/12 
 50
0.0000000000000496
 41
0.8
  7
FDASTYLE0
 72
     5
 11
1415.599999999986
 21
-1509.000000000025
 31
0.0
  0
TEXT
  5
56F
  8
ZUWAKU
 62
     4
 10
1195.099999999986
 20
-1297.50000000003
 30
0.0
 40
36.0
  1
番
 50
-0.000000000000014
 41
0.6666666666666656
  7
FDASTYLE0
 72
     5
 11
1223.899999999986
 21
-1297.50000000003
 31
0.0
  0
TEXT
  5
570
  8
ZUWAKU
 62
     4
 10
1252.099999999986
 20
-1297.50000000003
 30
0.0
 40
36.0
  1
号
 50
-0.000000000000014
 41
0.6666666666666656
  7
FDASTYLE0
 72
     5
 11
1280.899999999986
 21
-1297.50000000003
 31
0.0
  0
TEXT
  5
571
  8
ZUWAKU
 62
     4
 10
1346.599999999986
 20
-1297.50000000003
 30
0.0
 40
36.0
  1
品
 50
-0.000000000000014
 41
0.6666666666666656
  7
FDASTYLE0
 72
     5
 11
1375.399999999986
 21
-1297.50000000003
 31
0.0
  0
TEXT
  5
572
  8
ZUWAKU
 62
     4
 10
1580.599999999986
 20
-1297.50000000003
 30
0.0
 40
36.0
  1
名
 50
-0.000000000000014
 41
0.6666666666666656
  7
FDASTYLE0
 72
     5
 11
1609.399999999986
 21
-1297.50000000003
 31
0.0
  0
TEXT
  5
573
  8
ZUWAKU
 62
     4
 10
1688.599999999986
 20
-1297.50000000003
 30
0.0
 40
36.0
  1
材
 50
-0.000000000000014
 41
0.6666666666666656
  7
FDASTYLE0
 72
     5
 11
1717.399999999986
 21
-1297.50000000003
 31
0.0
  0
TEXT
  5
574
  8
ZUWAKU
 62
     4
 10
1778.599999999983
 20
-1297.50000000003
 30
0.0
 40
36.0
  1
質
 50
-0.000000000000014
 41
0.6666666666666656
  7
FDASTYLE0
 72
     5
 11
1807.399999999983
 21
-1297.50000000003
 31
0.0
  0
TEXT
  5
575
  8
ZUWAKU
 62
     4
 10
1855.099999999983
 20
-1297.50000000003
 30
0.0
 40
36.0
  1
個
 50
-0.000000000000014
 41
0.6666666666666656
  7
FDASTYLE0
 72
     5
 11
1883.899999999983
 21
-1297.50000000003
 31
0.0
  0
TEXT
  5
576
  8
ZUWAKU
 62
     4
 10
1912.099999999985
 20
-1297.50000000003
 30
0.0
 40
36.0
  1
数
 50
-0.000000000000014
 41
0.6666666666666656
  7
FDASTYLE0
 72
     5
 11
1940.899999999985
 21
-1297.50000000003
 31
0.0
  0
TEXT
  5
577
  8
ZUWAKU
 62
     4
 10
2006.599999999985
 20
-1297.50000000003
 30
0.0
 40
36.0
  1
記
 50
-0.000000000000014
 41
0.666666666666671
  7
FDASTYLE0
 72
     5
 11
2035.399999999986
 21
-1297.50000000003
 31
0.0
  0
TEXT
  5
578
  8
ZUWAKU
 62
     4
 10
2288.599999999985
 20
-1297.50000000003
 30
0.0
 40
36.0
  1
事
 50
-0.000000000000014
 41
0.666666666666671
  7
FDASTYLE0
 72
     5
 11
2317.399999999986
 21
-1297.50000000003
 31
0.0
  0
TEXT
  5
579
  8
ZUWAKU
 62
     4
 10
1580.599999999987
 20
-1509.000000000026
 30
0.0
 40
36.0
  1
ｍｍ
 50
0.0000000000000496
 41
0.6666666666666656
  7
FDASTYLE0
 72
     5
 11
1638.199999999986
 21
-1509.000000000026
 31
0.0
  0
TEXT
  5
57A
  8
ZUWAKU
 62
     4
 10
1513.099999999987
 20
-1491.000000000026
 30
0.0
 40
36.0
  1
単
 50
0.0000000000000496
 41
0.6666666666666656
  7
FDASTYLE0
 72
     5
 11
1541.899999999986
 21
-1491.000000000026
 31
0.0
  0
TEXT
  5
57B
  8
ZUWAKU
 62
     4
 10
1513.099999999987
 20
-1527.000000000027
 30
0.0
 40
36.0
  1
位
 50
0.0000000000000496
 41
0.6666666666666656
  7
FDASTYLE0
 72
     5
 11
1541.899999999986
 21
-1527.000000000027
 31
0.0
  0
TEXT
  5
57C
  8
ZUWAKU
 62
     4
 10
1684.099999999985
 20
-1491.000000000026
 30
0.0
 40
36.0
  1
製
 50
0.0000000000000496
 41
0.6666666666666656
  7
FDASTYLE0
 72
     5
 11
1712.899999999985
 21
-1491.000000000026
 31
0.0
  0
TEXT
  5
57D
  8
ZUWAKU
 62
     4
 10
1684.099999999985
 20
-1527.000000000027
 30
0.0
 40
36.0
  1
図
 50
0.0000000000000496
 41
0.6666666666666656
  7
FDASTYLE0
 72
     5
 11
1712.899999999985
 21
-1527.000000000027
 31
0.0
  0
TEXT
  5
57E
  8
ZUWAKU
 62
     4
 10
1195.099999999986
 20
-1585.500000000027
 30
0.0
 40
36.0
  1
表
 50
-0.000000000000014
 41
0.6666666666666656
  7
FDASTYLE0
 72
     5
 11
1223.899999999986
 21
-1585.500000000027
 31
0.0
  0
TEXT
  5
57F
  8
ZUWAKU
 62
     4
 10
1231.099999999986
 20
-1585.500000000027
 30
0.0
 40
36.0
  1
面
 50
-0.000000000000014
 41
0.6666666666666656
  7
FDASTYLE0
 72
     5
 11
1259.899999999986
 21
-1585.500000000027
 31
0.0
  0
TEXT
  5
580
  8
ZUWAKU
 62
     4
 10
1195.099999999986
 20
-1648.500000000026
 30
0.0
 40
36.0
  1
処
 50
-0.000000000000014
 41
0.6666666666666656
  7
FDASTYLE0
 72
     5
 11
1223.899999999986
 21
-1648.500000000026
 31
0.0
  0
TEXT
  5
581
  8
ZUWAKU
 62
     4
 10
1231.099999999986
 20
-1648.500000000027
 30
0.0
 40
36.0
  1
理
 50
-0.000000000000014
 41
0.6666666666666656
  7
FDASTYLE0
 72
     5
 11
1259.899999999986
 21
-1648.500000000027
 31
0.0
  0
TEXT
  5
582
  8
ZUWAKU
 62
     4
 10
1334.534648587181
 20
-1593.316588174763
 30
0.0
 40
48.0
  1
粉体焼付塗装
 41
0.7500000000000002
  7
FDASTYLE0
 72
     5
 11
1593.734648587182
 21
-1593.316588174763
 31
0.0
  0
TEXT
  5
583
  8
ZUWAKU
 62
     4
 10
1281.419867476551
 20
-1640.668749780571
 30
0.0
 40
36.0
  1
　
 41
0.6666666666666656
  7
FDASTYLE0
 72
     5
 11
1310.219867476551
 21
-1640.668749780571
 31
0.0
  0
TEXT
  5
584
  8
ZUWAKU
 62
     4
 10
1751.599999999987
 20
-1509.000000000026
 30
0.0
 40
36.0
  1
田渕
 50
0.0000000000000496
 41
0.6666666666666656
  7
FDASTYLE0
 72
     5
 11
1809.199999999986
 21
-1509.000000000026
 31
0.0
  0
TEXT
  5
585
  8
ZUWAKU
 62
     4
 10
1855.099999999984
 20
-1491.000000000026
 30
0.0
 40
36.0
  1
検
 50
0.0000000000000496
 41
0.6666666666666656
  7
FDASTYLE0
 72
     5
 11
1883.899999999984
 21
-1491.000000000026
 31
0.0
  0
TEXT
  5
586
  8
ZUWAKU
 62
     4
 10
1855.099999999984
 20
-1527.000000000027
 30
0.0
 40
36.0
  1
図
 50
0.0000000000000496
 41
0.6666666666666656
  7
FDASTYLE0
 72
     5
 11
1883.899999999984
 21
-1527.000000000027
 31
0.0
  0
TEXT
  5
587
  8
ZUWAKU
 62
     4
 10
1922.599999999985
 20
-1509.000000000026
 30
0.0
 40
36.0
  1
　
 50
0.0000000000000496
 41
0.6666666666666656
  7
FDASTYLE0
 72
     5
 11
1951.399999999985
 21
-1509.000000000026
 31
0.0
  0
TEXT
  5
588
  8
ZUWAKU
 62
     4
 10
1334.534648587181
 20
-1649.80065839583
 30
0.0
 40
48.0
  1
塗色　アイボリー　
 41
0.75
  7
FDASTYLE0
 72
     5
 11
1723.334648587181
 21
-1649.80065839583
 31
0.0
  0
TEXT
  5
589
  8
ZUWAKU
 62
     4
 10
1310.816538486489
 20
-1249.039883439238
 30
0.0
 40
42.0
  1
屋根組立　
 41
0.6666666666666666
  7
FDASTYLE0
 72
     5
 11
1478.816538486489
 21
-1249.039883439238
 31
0.0
  0
TEXT
  5
58A
  8
ZUWAKU
 62
     4
 10
1664.581223887926
 20
-1249.039883439239
 30
0.0
 40
42.0
  1
SGHC 
 41
0.8
  7
FDASTYLE0
 72
     5
 11
1832.581223887926
 21
-1249.039883439239
 31
0.0
  0
TEXT
  5
58B
  8
ZUWAKU
 62
     4
 10
1882.528911982587
 20
-1249.03988343924
 30
0.0
 40
42.0
  1
1 
 41
0.8000000000000005
  7
FDASTYLE0
 72
     5
 11
1949.728911982587
 21
-1249.03988343924
 31
0.0
  0
TEXT
  5
58C
  8
ZUWAKU
 62
     4
 10
1982.528911982585
 20
-1249.03988343924
 30
0.0
 40
42.0
  1
粉体焼付塗装　ｔ1.0
 41
0.6984126984126982
  7
FDASTYLE0
 72
     5
 11
2352.128911982585
 21
-1249.03988343924
 31
0.0
  0
TEXT
  5
58D
  8
ZUWAKU
 62
     4
 10
1982.528911982585
 20
-1189.039883439241
 30
0.0
 40
42.0
  1
粉体焼付塗装　ｔ2.0
 41
0.6984126984126982
  7
FDASTYLE0
 72
     5
 11
2352.128911982585
 21
-1189.039883439241
 31
0.0
  0
TEXT
  5
58E
  8
ZUWAKU
 62
     4
 10
1222.528911982587
 20
-1189.039883439239
 30
0.0
 40
42.0
  1
2
 41
0.7999999999999978
  7
FDASTYLE0
 72
     5
 11
1256.128911982587
 21
-1189.039883439239
 31
0.0
  0
TEXT
  5
58F
  8
ZUWAKU
 62
     4
 10
1310.816538486489
 20
-1189.039883439239
 30
0.0
 40
42.0
  1
脚　組立　
 41
0.6666666666666666
  7
FDASTYLE0
 72
     5
 11
1478.816538486489
 21
-1189.039883439239
 31
0.0
  0
TEXT
  5
590
  8
ZUWAKU
 62
     4
 10
1844.314292473294
 20
-1189.03988343924
 30
0.0
 40
42.0
  1
左右各1 
 41
0.5803571428571429
  7
FDASTYLE0
 72
     5
 11
1980.814292473294
 21
-1189.03988343924
 31
0.0
  0
TEXT
  5
591
  8
ZUWAKU
 62
     4
 10
1222.528911982587
 20
-1129.039883439239
 30
0.0
 40
42.0
  1
3
 41
0.7999999999999978
  7
FDASTYLE0
 72
     5
 11
1256.128911982587
 21
-1129.039883439239
 31
0.0
  0
TEXT
  5
592
  8
ZUWAKU
 62
     4
 10
1982.528911982585
 20
-1129.039883439241
 30
0.0
 40
42.0
  1
M6　クロメートメッキ　
 41
0.6428571428571429
  7
FDASTYLE0
 72
     5
 11
2360.528911982585
 21
-1129.039883439241
 31
0.0
  0
TEXT
  5
593
  8
ZUWAKU
 62
     4
 10
1310.816538486489
 20
-1129.039883439239
 30
0.0
 40
42.0
  1
六角ボルト　
 41
0.6666666666666672
  7
FDASTYLE0
 72
     5
 11
1512.416538486489
 21
-1129.039883439239
 31
0.0
  0
TEXT
  5
594
  8
ZUWAKU
 62
     4
 10
1882.528911982588
 20
-1129.039883439241
 30
0.0
 40
42.0
  1
4 
 41
0.6499999999999989
  7
FDASTYLE0
 72
     5
 11
1937.128911982587
 21
-1129.039883439241
 31
0.0
  0
TEXT
  5
595
  8
ZUWAKU
 62
     4
 10
1664.581223887926
 20
-1189.039883439239
 30
0.0
 40
42.0
  1
ZAM
 41
0.7999999999999996
  7
FDASTYLE0
 72
     5
 11
1765.381223887926
 21
-1189.039883439239
 31
0.0
  0
TEXT
  5
596
  8
ZUWAKU
 62
     4
 10
1664.581223887926
 20
-1129.03988343924
 30
0.0
 40
42.0
  1
SS400
 41
0.8
  7
FDASTYLE0
 72
     5
 11
1832.581223887926
 21
-1129.03988343924
 31
0.0
  0
TEXT
  5
597
  8
ZUWAKU
 62
     4
 10
1222.528911982587
 20
-1069.039883439239
 30
0.0
 40
42.0
  1
4
 41
0.7999999999999978
  7
FDASTYLE0
 72
     5
 11
1256.128911982587
 21
-1069.039883439239
 31
0.0
  0
TEXT
  5
598
  8
ZUWAKU
 62
     4
 10
1310.816538486489
 20
-1069.039883439239
 30
0.0
 40
42.0
  1
エア抜き管（短）
 41
0.541666666666667
  7
FDASTYLE0
 72
     5
 11
1529.216538486489
 21
-1069.039883439239
 31
0.0
  0
TEXT
  5
599
  8
ZUWAKU
 62
     4
 10
1664.581223887926
 20
-1069.03988343924
 30
0.0
 40
42.0
  1
STK
 41
0.7999999999999996
  7
FDASTYLE0
 72
     5
 11
1765.381223887926
 21
-1069.03988343924
 31
0.0
  0
TEXT
  5
59A
  8
ZUWAKU
 62
     4
 10
1882.528911982588
 20
-1069.039883439241
 30
0.0
 40
42.0
  1
1
 41
0.6499999999999989
  7
FDASTYLE0
 72
     5
 11
1909.828911982587
 21
-1069.039883439241
 31
0.0
  0
TEXT
  5
59B
  8
ZUWAKU
 62
     4
 10
1982.528911982585
 20
-1069.039883439242
 30
0.0
 40
42.0
  1
粉体焼付塗装
 41
0.6250000000000008
  7
FDASTYLE0
 72
     5
 11
2171.528911982585
 21
-1069.039883439242
 31
0.0
  0
TEXT
  5
59C
  8
ZUWAKU
 62
     4
 10
1222.528911982587
 20
-1009.03988343924
 30
0.0
 40
42.0
  1
5
 41
0.7999999999999978
  7
FDASTYLE0
 72
     5
 11
1256.128911982587
 21
-1009.03988343924
 31
0.0
  0
TEXT
  5
59D
  8
ZUWAKU
 62
     4
 10
1310.816538486489
 20
-1009.03988343924
 30
0.0
 40
42.0
  1
六角ボルト+平座+ナット
 41
0.5571428571428574
  7
FDASTYLE0
 72
     5
 11
1638.416538486489
 21
-1009.03988343924
 31
0.0
  0
TEXT
  5
59E
  8
ZUWAKU
 62
     4
 10
1664.581223887926
 20
-1009.03988343924
 30
0.0
 40
42.0
  1
SS400
 41
0.8
  7
FDASTYLE0
 72
     5
 11
1832.581223887926
 21
-1009.03988343924
 31
0.0
  0
TEXT
  5
59F
  8
ZUWAKU
 62
     4
 10
1882.528911982588
 20
-1009.039883439241
 30
0.0
 40
42.0
  1
各2
 41
0.5909090909090899
  7
FDASTYLE0
 72
     5
 11
1937.128911982587
 21
-1009.039883439241
 31
0.0
  0
TEXT
  5
5A0
  8
ZUWAKU
 62
     4
 10
1982.528911982585
 20
-1009.039883439242
 30
0.0
 40
42.0
  1
M12　クロメートメッキ　
 41
0.65
  7
FDASTYLE0
 72
     5
 11
2392.028911982585
 21
-1009.039883439242
 31
0.0
  0
TEXT
  5
5A1
  8
ZUWAKU
 62
     4
 10
1130.003264972593
 20
-1009.03988343924
 30
0.0
 40
42.0
  1
※
 41
0.6666666666666649
  7
FDASTYLE0
 72
     5
 11
1163.603264972593
 21
-1009.03988343924
 31
0.0
  0
TEXT
  5
5A2
  8
ZUWAKU
 62
     4
 10
1130.003264972593
 20
-1069.039883439239
 30
0.0
 40
42.0
  1
＠
 41
0.6666666666666649
  7
FDASTYLE0
 72
     5
 11
1163.603264972593
 21
-1069.039883439239
 31
0.0
  0
TEXT
  5
5A3
  8
ZUWAKU
 62
     4
 10
1222.528911982587
 20
-1249.039883439242
 30
0.0
 40
42.0
  1
1
 41
0.7999999999999978
  7
FDASTYLE0
 72
     5
 11
1256.128911982587
 21
-1249.039883439242
 31
0.0
  0
TEXT
  5
5A4
  8
ZUWAKU
 62
     4
 10
1342.528911982591
 20
-1249.039883439242
 30
0.0
 40
42.0
  1
　
 41
0.6666666666666649
  7
FDASTYLE0
 72
     5
 11
1376.128911982591
 21
-1249.039883439242
 31
0.0
  0
TEXT
  5
5A5
  8
ZUWAKU
 62
     4
 10
1664.581223887926
 20
-1249.039883439243
 30
0.0
 40
42.0
  1
 
 41
0.7999999999999978
  7
FDASTYLE0
 72
     5
 11
1698.181223887926
 21
-1249.039883439243
 31
0.0
  0
TEXT
  5
5A6
  8
ZUWAKU
 62
     4
 10
1882.528911982588
 20
-1249.039883439243
 30
0.0
 40
42.0
  1
 
 41
0.7999999999999978
  7
FDASTYLE0
 72
     5
 11
1916.128911982587
 21
-1249.039883439243
 31
0.0
  0
TEXT
  5
5A7
  8
ZUWAKU
 62
     4
 10
2002.528911982586
 20
-1249.039883439244
 30
0.0
 40
42.0
  1
　
 41
0.6666666666666649
  7
FDASTYLE0
 72
     5
 11
2036.128911982586
 21
-1249.039883439244
 31
0.0
  0
TEXT
  5
5A8
  8
ZUWAKU
 62
     2
 10
1913.449999999981
 20
-1401.000000000025
 30
0.0
 40
54.0
  1
HT-JF-SN1011
 50
0.0000000000000496
 41
0.6499999999999994
  7
FDASTYLE0
 72
     5
 11
2334.649999999981
 21
-1401.000000000025
 31
0.0
  0
TEXT
  5
5A9
  8
ZUWAKU
 62
     2
 10
1936.487682311501
 20
-1596.428508912294
 30
0.0
 40
36.0
  1
株
 50
0.0000000000000623
 41
0.6666666666666656
  7
FDASTYLE0
 72
     5
 11
1965.287682311501
 21
-1596.428508912294
 31
0.0
  0
TEXT
  5
5AA
  8
ZUWAKU
 62
     2
 10
1979.687682311503
 20
-1596.428508912294
 30
0.0
 40
36.0
  1
式
 50
0.0000000000000623
 41
0.6666666666666656
  7
FDASTYLE0
 72
     5
 11
2008.487682311503
 21
-1596.428508912294
 31
0.0
  0
TEXT
  5
5AB
  8
ZUWAKU
 62
     2
 10
1936.487682311501
 20
-1639.628508912304
 30
0.0
 40
36.0
  1
会
 50
0.0000000000000623
 41
0.6666666666666656
  7
FDASTYLE0
 72
     5
 11
1965.287682311501
 21
-1639.628508912304
 31
0.0
  0
TEXT
  5
5AC
  8
ZUWAKU
 62
     2
 10
1979.687682311503
 20
-1639.628508912304
 30
0.0
 40
36.0
  1
社
 50
0.0000000000000623
 41
0.6666666666666656
  7
FDASTYLE0
 72
     5
 11
2008.487682311503
 21
-1639.628508912304
 31
0.0
  0
TEXT
  5
5AD
  8
ZUWAKU
 62
     2
 10
1255.692705469413
 20
-1370.001125425176
 30
0.0
 40
48.0
  1
タンクルーフ　HT-JF1000　
 50
0.0000000000000496
 41
0.6563307493540052
  7
FDASTYLE0
 72
     5
 11
1865.292705469413
 21
-1370.001125425176
 31
0.0
  0
TEXT
  5
5AE
  8
ZUWAKU
 62
     2
 10
1176.350000143032
 20
-1432.441793232649
 30
0.0
 40
48.0
  1
　
 50
0.0000000000000496
 41
0.6250000000000001
  7
FDASTYLE0
 72
     5
 11
1212.350000143032
 21
-1432.441793232649
 31
0.0
  0
TEXT
  5
5AF
  8
ZUWAKU
 62
     2
 10
1255.692705469413
 20
-1432.456368783898
 30
0.0
 40
48.0
  1
HT-1000　片流れタイプ
 50
0.0000000000000496
 41
0.6531249999999998
  7
FDASTYLE0
 72
     5
 11
1757.292705469413
 21
-1432.456368783898
 31
0.0
  0
LINE
  5
5B0
  8
ZUWAKU
 62
     6
 10
1829.220779513471
 20
-1609.495735821757
 30
0.0
 11
1829.105367329141
 21
-1610.376332203673
 31
0.0
  0
LINE
  5
5B1
  8
ZUWAKU
 62
     6
 10
1829.105367329141
 20
-1610.376332203673
 30
0.0
 11
1829.093829805549
 21
-1611.835057638847
 31
0.0
  0
LINE
  5
5B2
  8
ZUWAKU
 62
     6
 10
1829.093829805549
 20
-1611.835057638847
 30
0.0
 11
1829.259219468744
 21
-1613.30781347303
 31
0.0
  0
LINE
  5
5B3
  8
ZUWAKU
 62
     6
 10
1829.259219468744
 20
-1613.30781347303
 30
0.0
 11
1829.600916818042
 21
-1614.784095248278
 31
0.0
  0
LINE
  5
5B4
  8
ZUWAKU
 62
     6
 10
1829.600916818042
 20
-1614.784095248278
 30
0.0
 11
1830.117099493426
 21
-1616.253050264398
 31
0.0
  0
LINE
  5
5B5
  8
ZUWAKU
 62
     6
 10
1830.117099493426
 20
-1616.253050264398
 30
0.0
 11
1830.804622723444
 21
-1617.703567792219
 31
0.0
  0
LINE
  5
5B6
  8
ZUWAKU
 62
     6
 10
1830.804622723444
 20
-1617.703567792219
 30
0.0
 11
1831.65894540689
 21
-1619.124423149105
 31
0.0
  0
LINE
  5
5B7
  8
ZUWAKU
 62
     6
 10
1831.65894540689
 20
-1619.124423149105
 30
0.0
 11
1832.674111688408
 21
-1620.504443488909
 31
0.0
  0
LINE
  5
5B8
  8
ZUWAKU
 62
     6
 10
1832.674111688408
 20
-1620.504443488909
 30
0.0
 11
1833.842781305559
 21
-1621.832670082166
 31
0.0
  0
LINE
  5
5B9
  8
ZUWAKU
 62
     6
 10
1833.842781305559
 20
-1621.832670082166
 30
0.0
 11
1835.1562952376
 21
-1623.098503386997
 31
0.0
  0
LINE
  5
5BA
  8
ZUWAKU
 62
     6
 10
1835.1562952376
 20
-1623.098503386997
 30
0.0
 11
1836.604763629029
 21
-1624.291826733289
 31
0.0
  0
LINE
  5
5BB
  8
ZUWAKU
 62
     6
 10
1836.604763629029
 20
-1624.291826733289
 30
0.0
 11
1838.177166466251
 21
-1625.403109904321
 31
0.0
  0
LINE
  5
5BC
  8
ZUWAKU
 62
     6
 10
1838.177166466251
 20
-1625.403109904321
 30
0.0
 11
1839.861461216156
 21
-1626.423495974171
 31
0.0
  0
LINE
  5
5BD
  8
ZUWAKU
 62
     6
 10
1839.861461216156
 20
-1626.423495974171
 30
0.0
 11
1841.644694412422
 21
-1627.344874869533
 31
0.0
  0
LINE
  5
5BE
  8
ZUWAKU
 62
     6
 10
1841.644694412422
 20
-1627.344874869533
 30
0.0
 11
1843.513115854064
 21
-1628.159946417401
 31
0.0
  0
LINE
  5
5BF
  8
ZUWAKU
 62
     6
 10
1843.513115854064
 20
-1628.159946417401
 30
0.0
 11
1845.452294924836
 21
-1628.862274778306
 31
0.0
  0
LINE
  5
5C0
  8
ZUWAKU
 62
     6
 10
1845.452294924836
 20
-1628.862274778306
 30
0.0
 11
1847.447238871576
 21
-1629.446335434023
 31
0.0
  0
LINE
  5
5C1
  8
ZUWAKU
 62
     6
 10
1847.447238871576
 20
-1629.446335434023
 30
0.0
 11
1849.482512941171
 21
-1629.907555372904
 31
0.0
  0
LINE
  5
5C2
  8
ZUWAKU
 62
     6
 10
1849.482512941171
 20
-1629.907555372904
 30
0.0
 11
1851.542362228249
 21
-1630.242346778055
 31
0.0
  0
LINE
  5
5C3
  8
ZUWAKU
 62
     6
 10
1851.542362228249
 20
-1630.242346778055
 30
0.0
 11
1853.610835019015
 21
-1630.448134323918
 31
0.0
  0
LINE
  5
5C4
  8
ZUWAKU
 62
     6
 10
1853.610835019015
 20
-1630.448134323918
 30
0.0
 11
1855.671907379284
 21
-1630.52337607282
 31
0.0
  0
LINE
  5
5C5
  8
ZUWAKU
 62
     6
 10
1855.671907379284
 20
-1630.52337607282
 30
0.0
 11
1857.709608749436
 21
-1630.467577884639
 31
0.0
  0
LINE
  5
5C6
  8
ZUWAKU
 62
     6
 10
1857.709608749436
 20
-1630.467577884639
 30
0.0
 11
1859.708148387189
 21
-1630.28130116183
 31
0.0
  0
LINE
  5
5C7
  8
ZUWAKU
 62
     6
 10
1859.708148387189
 20
-1630.28130116183
 30
0.0
 11
1861.652042635225
 21
-1629.966163591013
 31
0.0
  0
LINE
  5
5C8
  8
ZUWAKU
 62
     6
 10
1861.652042635225
 20
-1629.966163591013
 30
0.0
 11
1863.526243161791
 21
-1629.524832247317
 31
0.0
  0
LINE
  5
5C9
  8
ZUWAKU
 62
     6
 10
1863.526243161791
 20
-1629.524832247317
 30
0.0
 11
1865.316266461773
 21
-1628.961007917126
 31
0.0
  0
LINE
  5
5CA
  8
ZUWAKU
 62
     6
 10
1865.316266461773
 20
-1628.961007917126
 30
0.0
 11
1867.008324874463
 21
-1628.27939869381
 31
0.0
  0
LINE
  5
5CB
  8
ZUWAKU
 62
     6
 10
1867.008324874463
 20
-1628.27939869381
 30
0.0
 11
1868.589458914203
 21
-1627.485679785447
 31
0.0
  0
LINE
  5
5CC
  8
ZUWAKU
 62
     6
 10
1868.589458914203
 20
-1627.485679785447
 30
0.0
 11
1870.047669418451
 21
-1626.586435189881
 31
0.0
  0
LINE
  5
5CD
  8
ZUWAKU
 62
     6
 10
1870.047669418451
 20
-1626.586435189881
 30
0.0
 11
1871.37204540212
 21
-1625.589075953411
 31
0.0
  0
LINE
  5
5CE
  8
ZUWAKU
 62
     6
 10
1871.37204540212
 20
-1625.589075953411
 30
0.0
 11
1872.555653932986
 21
-1624.499175267059
 31
0.0
  0
ARC
  5
5CF
  8
ZUWAKU
 62
     6
 10
1886.327317596437
 20
-1625.73402100474
 30
0.0
 40
0.3904820012202562
 50
348.9999999999993
 51
405.0000000000003
  0
LINE
  5
5D0
  8
ZUWAKU
 62
     6
 10
1886.603430067432
 20
-1625.457908533736
 30
0.0
 11
1877.126306585727
 21
-1615.980785052031
 31
0.0
  0
ARC
  5
5D1
  8
ZUWAKU
 62
     6
 10
1878.497715824391
 20
-1615.695519464741
 30
0.0
 40
1.171446003660768
 50
168.9999999999942
 51
225.0
  0
LINE
  5
5D2
  8
ZUWAKU
 62
     6
 10
1877.347792583258
 20
-1615.471997029647
 30
0.0
 11
1877.573315167717
 21
-1614.311783912085
 31
0.0
  0
LINE
  5
5D3
  8
ZUWAKU
 62
     6
 10
1877.769116598124
 20
-1612.817816596668
 30
0.0
 11
1877.781402879377
 21
-1611.26442337352
 31
0.0
  0
LINE
  5
5D4
  8
ZUWAKU
 62
     6
 10
1872.951887810676
 20
-1600.898164821657
 30
0.0
 11
1871.457666353966
 21
-1599.458183685131
 31
0.0
  0
LINE
  5
5D5
  8
ZUWAKU
 62
     6
 10
1871.457666353966
 20
-1599.458183685131
 30
0.0
 11
1869.963463640002
 21
-1598.227182033176
 31
0.0
  0
LINE
  5
5D6
  8
ZUWAKU
 62
     6
 10
1869.963463640002
 20
-1598.227182033176
 30
0.0
 11
1868.344985991212
 21
-1597.083335856342
 31
0.0
  0
LINE
  5
5D7
  8
ZUWAKU
 62
     6
 10
1868.344985991212
 20
-1597.083335856342
 30
0.0
 11
1866.614475401672
 21
-1596.034951124749
 31
0.0
  0
LINE
  5
5D8
  8
ZUWAKU
 62
     6
 10
1866.614475401672
 20
-1596.034951124749
 30
0.0
 11
1864.784967135635
 21
-1595.089662360085
 31
0.0
  0
LINE
  5
5D9
  8
ZUWAKU
 62
     6
 10
1864.784967135635
 20
-1595.089662360085
 30
0.0
 11
1862.870206136052
 21
-1594.254375857286
 31
0.0
  0
LINE
  5
5DA
  8
ZUWAKU
 62
     6
 10
1862.870206136052
 20
-1594.254375857286
 30
0.0
 11
1860.884554089419
 21
-1593.535215998229
 31
0.0
  0
LINE
  5
5DB
  8
ZUWAKU
 62
     6
 10
1860.884554089419
 20
-1593.535215998229
 30
0.0
 11
1858.84288857725
 21
-1592.937476648339
 31
0.0
  0
LINE
  5
5DC
  8
ZUWAKU
 62
     6
 10
1858.84288857725
 20
-1592.937476648339
 30
0.0
 11
1856.760495881797
 21
-1592.465579007575
 31
0.0
  0
LINE
  5
5DD
  8
ZUWAKU
 62
     6
 10
1856.760495881797
 20
-1592.465579007575
 30
0.0
 11
1854.652959028047
 21
-1592.123036847296
 31
0.0
  0
LINE
  5
5DE
  8
ZUWAKU
 62
     6
 10
1854.652959028047
 20
-1592.123036847296
 30
0.0
 11
1852.536042627125
 21
-1591.912429759349
 31
0.0
  0
LINE
  5
5DF
  8
ZUWAKU
 62
     6
 10
1852.536042627125
 20
-1591.912429759349
 30
0.0
 11
1850.425576083781
 21
-1591.835384820622
 31
0.0
  0
LINE
  5
5E0
  8
ZUWAKU
 62
     6
 10
1850.425576083781
 20
-1591.835384820622
 30
0.0
 11
1848.337336768274
 21
-1591.892566884689
 31
0.0
  0
LINE
  5
5E1
  8
ZUWAKU
 62
     6
 10
1848.337336768274
 20
-1591.892566884689
 30
0.0
 11
1846.286934838293
 21
-1592.08367750603
 31
0.0
  0
LINE
  5
5E2
  8
ZUWAKU
 62
     6
 10
1846.286934838293
 20
-1592.08367750603
 30
0.0
 11
1844.289701526615
 21
-1592.40746222572
 31
0.0
  0
LINE
  5
5E3
  8
ZUWAKU
 62
     6
 10
1844.289701526615
 20
-1592.40746222572
 30
0.0
 11
1842.36058286199
 21
-1592.861725534455
 31
0.0
  0
LINE
  5
5E4
  8
ZUWAKU
 62
     6
 10
1842.36058286199
 20
-1592.861725534455
 30
0.0
 11
1840.514040894816
 21
-1593.443352202544
 31
0.0
  0
LINE
  5
5E5
  8
ZUWAKU
 62
     6
 10
1840.514040894816
 20
-1593.443352202544
 30
0.0
 11
1838.76396442191
 21
-1594.148332749616
 31
0.0
  0
LINE
  5
5E6
  8
ZUWAKU
 62
     6
 10
1838.76396442191
 20
-1594.148332749616
 30
0.0
 11
1837.123590682478
 21
-1594.971789598339
 31
0.0
  0
LINE
  5
5E7
  8
ZUWAKU
 62
     6
 10
1837.123590682478
 20
-1594.971789598339
 30
0.0
 11
1835.605438133422
 21
-1595.907999062617
 31
0.0
  0
LINE
  5
5E8
  8
ZUWAKU
 62
     6
 10
1835.605438133422
 20
-1595.907999062617
 30
0.0
 11
1834.221247709639
 21
-1596.950403275013
 31
0.0
  0
LINE
  5
5E9
  8
ZUWAKU
 62
     6
 10
1834.221247709639
 20
-1596.950403275013
 30
0.0
 11
1832.981925642173
 21
-1598.091606583982
 31
0.0
  0
LINE
  5
5EA
  8
ZUWAKU
 62
     6
 10
1832.981925642173
 20
-1598.091606583982
 30
0.0
 11
1831.715358331953
 21
-1599.53020824995
 31
0.0
  0
LINE
  5
5EB
  8
ZUWAKU
 62
     6
 10
1829.534363685842
 20
-1603.941100988824
 30
0.0
 11
1829.270380765611
 21
-1604.959405797458
 31
0.0
  0
LINE
  5
5EC
  8
ZUWAKU
 62
     6
 10
1829.270380765611
 20
-1604.959405797458
 30
0.0
 11
1829.069881052705
 21
-1606.489221065994
 31
0.0
  0
LINE
  5
5ED
  8
ZUWAKU
 62
     6
 10
1829.069881052705
 20
-1606.489221065994
 30
0.0
 11
1829.057594771452
 21
-1608.042614289142
 31
0.0
  0
LINE
  5
5EE
  8
ZUWAKU
 62
     6
 10
1829.057594771452
 20
-1608.042614289142
 30
0.0
 11
1829.233252663869
 21
-1609.606806275998
 31
0.0
  0
LINE
  5
5EF
  8
ZUWAKU
 62
     6
 10
1829.233252663869
 20
-1609.606806275998
 30
0.0
 11
1829.594878652821
 21
-1611.169188477813
 31
0.0
  0
LINE
  5
5F0
  8
ZUWAKU
 62
     6
 10
1829.594878652821
 20
-1611.169188477813
 30
0.0
 11
1830.138942383032
 21
-1612.717487527129
 31
0.0
  0
LINE
  5
5F1
  8
ZUWAKU
 62
     6
 10
1830.138942383032
 20
-1612.717487527129
 30
0.0
 11
1830.860519510628
 21
-1614.239851027819
 31
0.0
  0
LINE
  5
5F2
  8
ZUWAKU
 62
     6
 10
1830.860519510628
 20
-1614.239851027819
 30
0.0
 11
1831.75342703223
 21
-1615.724878242786
 31
0.0
  0
LINE
  5
5F3
  8
ZUWAKU
 62
     6
 10
1831.75342703223
 20
-1615.724878242786
 30
0.0
 11
1832.810323326361
 21
-1617.161626497234
 31
0.0
  0
LINE
  5
5F4
  8
ZUWAKU
 62
     6
 10
1832.810323326361
 20
-1617.161626497234
 30
0.0
 11
1834.022779008078
 21
-1618.539617210769
 31
0.0
  0
LINE
  5
5F5
  8
ZUWAKU
 62
     6
 10
1834.022779008078
 20
-1618.539617210769
 30
0.0
 11
1835.381331296855
 21
-1619.848853977531
 31
0.0
  0
LINE
  5
5F6
  8
ZUWAKU
 62
     6
 10
1835.381331296855
 20
-1619.848853977531
 30
0.0
 11
1836.875534010819
 21
-1621.079855629486
 31
0.0
  0
LINE
  5
5F7
  8
ZUWAKU
 62
     6
 10
1836.875534010819
 20
-1621.079855629486
 30
0.0
 11
1838.494011659617
 21
-1622.22370180632
 31
0.0
  0
LINE
  5
5F8
  8
ZUWAKU
 62
     6
 10
1838.494011659617
 20
-1622.22370180632
 30
0.0
 11
1840.224522249157
 21
-1623.272086537913
 31
0.0
  0
LINE
  5
5F9
  8
ZUWAKU
 62
     6
 10
1840.224522249157
 20
-1623.272086537913
 30
0.0
 11
1842.054030515194
 21
-1624.217375302594
 31
0.0
  0
LINE
  5
5FA
  8
ZUWAKU
 62
     6
 10
1842.054030515194
 20
-1624.217375302594
 30
0.0
 11
1843.968791514769
 21
-1625.052661805376
 31
0.0
  0
LINE
  5
5FB
  8
ZUWAKU
 62
     6
 10
1843.968791514769
 20
-1625.052661805376
 30
0.0
 11
1845.954443561402
 21
-1625.771821664433
 31
0.0
  0
LINE
  5
5FC
  8
ZUWAKU
 62
     6
 10
1845.954443561402
 20
-1625.771821664433
 30
0.0
 11
1847.996109073571
 21
-1626.36956101434
 31
0.0
  0
LINE
  5
5FD
  8
ZUWAKU
 62
     6
 10
1847.996109073571
 20
-1626.36956101434
 30
0.0
 11
1850.078501769031
 21
-1626.841458655087
 31
0.0
  0
LINE
  5
5FE
  8
ZUWAKU
 62
     6
 10
1850.078501769031
 20
-1626.841458655087
 30
0.0
 11
1852.186038622774
 21
-1627.184000815366
 31
0.0
  0
LINE
  5
5FF
  8
ZUWAKU
 62
     6
 10
1852.186038622774
 20
-1627.184000815366
 30
0.0
 11
1854.302955023696
 21
-1627.394607903313
 31
0.0
  0
LINE
  5
600
  8
ZUWAKU
 62
     6
 10
1854.302955023696
 20
-1627.394607903313
 30
0.0
 11
1856.413421567047
 21
-1627.47165284204
 31
0.0
  0
LINE
  5
601
  8
ZUWAKU
 62
     6
 10
1856.413421567047
 20
-1627.47165284204
 30
0.0
 11
1858.501660882546
 21
-1627.414470777973
 31
0.0
  0
LINE
  5
602
  8
ZUWAKU
 62
     6
 10
1858.501660882546
 20
-1627.414470777973
 30
0.0
 11
1860.552062812544
 21
-1627.223360156632
 31
0.0
  0
LINE
  5
603
  8
ZUWAKU
 62
     6
 10
1860.552062812544
 20
-1627.223360156632
 30
0.0
 11
1862.549296124205
 21
-1626.899575436942
 31
0.0
  0
LINE
  5
604
  8
ZUWAKU
 62
     6
 10
1862.549296124205
 20
-1626.899575436942
 30
0.0
 11
1864.478414788847
 21
-1626.445312128223
 31
0.0
  0
LINE
  5
605
  8
ZUWAKU
 62
     6
 10
1864.478414788847
 20
-1626.445312128223
 30
0.0
 11
1866.324956756012
 21
-1625.863685460118
 31
0.0
  0
LINE
  5
606
  8
ZUWAKU
 62
     6
 10
1866.324956756012
 20
-1625.863685460118
 30
0.0
 11
1868.075033228927
 21
-1625.158704913046
 31
0.0
  0
LINE
  5
607
  8
ZUWAKU
 62
     6
 10
1868.075033228927
 20
-1625.158704913046
 30
0.0
 11
1869.715406968343
 21
-1624.335248064323
 31
0.0
  0
LINE
  5
608
  8
ZUWAKU
 62
     6
 10
1869.715406968343
 20
-1624.335248064323
 30
0.0
 11
1871.233559517399
 21
-1623.399038600061
 31
0.0
  0
LINE
  5
609
  8
ZUWAKU
 62
     6
 10
1871.233559517399
 20
-1623.399038600061
 30
0.0
 11
1872.61774994119
 21
-1622.356634387649
 31
0.0
  0
LINE
  5
60A
  8
ZUWAKU
 62
     6
 10
1872.61774994119
 20
-1622.356634387649
 30
0.0
 11
1873.857072008647
 21
-1621.21543107868
 31
0.0
  0
LINE
  5
60B
  8
ZUWAKU
 62
     6
 10
1873.857072008647
 20
-1621.21543107868
 30
0.0
 11
1874.028446571231
 21
-1621.020779180405
 31
0.0
  0
ARC
  5
60C
  8
ZUWAKU
 62
     6
 10
1884.398936510863
 20
-1624.247419872748
 30
0.0
 40
0.7028676021964606
 50
248.9511701848124
 51
405.0000000000002
  0
LINE
  5
60D
  8
ZUWAKU
 62
     6
 10
1877.126306585727
 20
-1615.980785052031
 30
0.0
 11
1877.181438095568
 21
-1615.841160397075
 31
0.0
  0
LINE
  5
60E
  8
ZUWAKU
 62
     6
 10
1877.181438095568
 20
-1615.841160397075
 30
0.0
 11
1877.56861688521
 21
-1614.347631865204
 31
0.0
  0
LINE
  5
60F
  8
ZUWAKU
 62
     6
 10
1877.56861688521
 20
-1614.347631865204
 30
0.0
 11
1877.769116598124
 21
-1612.817816596668
 31
0.0
  0
LINE
  5
610
  8
ZUWAKU
 62
     6
 10
1877.781402879377
 20
-1611.264423373536
 30
0.0
 11
1877.605744986951
 21
-1609.700231386664
 31
0.0
  0
LINE
  5
611
  8
ZUWAKU
 62
     6
 10
1877.605744986951
 20
-1609.700231386664
 30
0.0
 11
1877.244118998
 21
-1608.137849184849
 31
0.0
  0
LINE
  5
612
  8
ZUWAKU
 62
     6
 10
1877.244118998
 20
-1608.137849184849
 30
0.0
 11
1876.739747581746
 21
-1606.702506703944
 31
0.0
  0
LINE
  5
613
  8
ZUWAKU
 62
     6
 10
1830.010765074603
 20
-1601.726638155788
 30
0.0
 11
1830.469397790513
 21
-1601.903139367888
 31
0.0
  0
LINE
  5
614
  8
ZUWAKU
 62
     6
 10
1830.469397790513
 20
-1601.903139367888
 30
0.0
 11
1830.554825607733
 21
-1601.745192944501
 31
0.0
  0
LINE
  5
615
  8
ZUWAKU
 62
     6
 10
1830.554825607733
 20
-1601.745192944501
 30
0.0
 11
1830.010765074603
 21
-1601.726638155788
 31
0.0
  0
LINE
  5
616
  8
ZUWAKU
 62
     6
 10
1831.732858011425
 20
-1604.785023891639
 30
0.0
 11
1831.571687239834
 21
-1605.406734461353
 31
0.0
  0
LINE
  5
617
  8
ZUWAKU
 62
     6
 10
1831.571687239834
 20
-1605.406734461353
 30
0.0
 11
1831.396205805878
 21
-1606.745659954621
 31
0.0
  0
LINE
  5
618
  8
ZUWAKU
 62
     6
 10
1831.396205805878
 20
-1606.745659954621
 30
0.0
 11
1831.385436792115
 21
-1608.107220271805
 31
0.0
  0
LINE
  5
619
  8
ZUWAKU
 62
     6
 10
1831.385436792115
 20
-1608.107220271805
 30
0.0
 11
1831.539824921259
 21
-1609.482010047236
 31
0.0
  0
LINE
  5
61A
  8
ZUWAKU
 62
     6
 10
1831.539824921259
 20
-1609.482010047236
 30
0.0
 11
1831.858834420928
 21
-1610.860270403863
 31
0.0
  0
LINE
  5
61B
  8
ZUWAKU
 62
     6
 10
1831.858834420928
 20
-1610.860270403863
 30
0.0
 11
1832.340815599362
 21
-1612.23189464368
 31
0.0
  0
LINE
  5
61C
  8
ZUWAKU
 62
     6
 10
1832.340815599362
 20
-1612.23189464368
 30
0.0
 11
1832.982883979133
 21
-1613.586512783476
 31
0.0
  0
LINE
  5
61D
  8
ZUWAKU
 62
     6
 10
1832.982883979133
 20
-1613.586512783476
 30
0.0
 11
1833.780844397902
 21
-1614.913629992902
 31
0.0
  0
LINE
  5
61E
  8
ZUWAKU
 62
     6
 10
1833.780844397902
 20
-1614.913629992902
 30
0.0
 11
1834.729169951165
 21
-1616.202786829645
 31
0.0
  0
LINE
  5
61F
  8
ZUWAKU
 62
     6
 10
1834.729169951165
 20
-1616.202786829645
 30
0.0
 11
1835.821029074809
 21
-1617.443716090439
 31
0.0
  0
LINE
  5
620
  8
ZUWAKU
 62
     6
 10
1835.821029074809
 20
-1617.443716090439
 30
0.0
 11
1837.04834732231
 21
-1618.626482618754
 31
0.0
  0
LINE
  5
621
  8
ZUWAKU
 62
     6
 10
1837.04834732231
 20
-1618.626482618754
 30
0.0
 11
1838.40189083937
 21
-1619.741601932857
 31
0.0
  0
LINE
  5
622
  8
ZUWAKU
 62
     6
 10
1838.40189083937
 20
-1619.741601932857
 30
0.0
 11
1839.871362048015
 21
-1620.780138995885
 31
0.0
  0
LINE
  5
623
  8
ZUWAKU
 62
     6
 10
1839.871362048015
 20
-1620.780138995885
 30
0.0
 11
1841.445501786961
 21
-1621.733790523743
 31
0.0
  0
LINE
  5
624
  8
ZUWAKU
 62
     6
 10
1841.445501786961
 20
-1621.733790523743
 30
0.0
 11
1843.112194936063
 21
-1622.594954333318
 31
0.0
  0
LINE
  5
625
  8
ZUWAKU
 62
     6
 10
1843.112194936063
 20
-1622.594954333318
 30
0.0
 11
1844.858578234442
 21
-1623.356788524711
 31
0.0
  0
LINE
  5
626
  8
ZUWAKU
 62
     6
 10
1844.858578234442
 20
-1623.356788524711
 30
0.0
 11
1846.671149849813
 21
-1624.0132624269
 31
0.0
  0
LINE
  5
627
  8
ZUWAKU
 62
     6
 10
1846.671149849813
 20
-1624.0132624269
 30
0.0
 11
1848.535880588198
 21
-1624.559200501789
 31
0.0
  0
LINE
  5
628
  8
ZUWAKU
 62
     6
 10
1848.535880588198
 20
-1624.559200501789
 30
0.0
 11
1850.438326697636
 21
-1624.990319873591
 31
0.0
  0
LINE
  5
629
  8
ZUWAKU
 62
     6
 10
1850.438326697636
 20
-1624.990319873591
 30
0.0
 11
1852.363744173708
 21
-1625.303261808883
 31
0.0
  0
LINE
  5
62A
  8
ZUWAKU
 62
     6
 10
1852.363744173708
 20
-1625.303261808883
 30
0.0
 11
1854.297204409912
 21
-1625.495617269801
 31
0.0
  0
LINE
  5
62B
  8
ZUWAKU
 62
     6
 10
1854.297204409912
 20
-1625.495617269801
 30
0.0
 11
1856.223710999091
 21
-1625.565946544887
 31
0.0
  0
LINE
  5
62C
  8
ZUWAKU
 62
     6
 10
1856.223710999091
 20
-1625.565946544887
 30
0.0
 11
1858.128317508424
 21
-1625.513792880974
 31
0.0
  0
LINE
  5
62D
  8
ZUWAKU
 62
     6
 10
1858.128317508424
 20
-1625.513792880974
 30
0.0
 11
1859.996246127859
 21
-1625.339689943473
 31
0.0
  0
LINE
  5
62E
  8
ZUWAKU
 62
     6
 10
1859.996246127859
 20
-1625.339689943473
 30
0.0
 11
1861.813007228802
 21
-1625.045162769114
 31
0.0
  0
LINE
  5
62F
  8
ZUWAKU
 62
     6
 10
1861.813007228802
 20
-1625.045162769114
 30
0.0
 11
1863.564520039526
 21
-1624.632721575496
 31
0.0
  0
LINE
  5
630
  8
ZUWAKU
 62
     6
 10
1863.564520039526
 20
-1624.632721575496
 30
0.0
 11
1865.237234782507
 21
-1624.105847277509
 31
0.0
  0
LINE
  5
631
  8
ZUWAKU
 62
     6
 10
1865.237234782507
 20
-1624.105847277509
 30
0.0
 11
1866.818256585984
 21
-1623.46896675647
 31
0.0
  0
LINE
  5
632
  8
ZUWAKU
 62
     6
 10
1866.818256585984
 20
-1623.46896675647
 30
0.0
 11
1868.295471019936
 21
-1622.727414807995
 31
0.0
  0
LINE
  5
633
  8
ZUWAKU
 62
     6
 10
1868.295471019936
 20
-1622.727414807995
 30
0.0
 11
1869.657669812796
 21
-1621.88737840792
 31
0.0
  0
LINE
  5
634
  8
ZUWAKU
 62
     6
 10
1869.657669812796
 20
-1621.88737840792
 30
0.0
 11
1870.894672686545
 21
-1620.955817992396
 31
0.0
  0
LINE
  5
635
  8
ZUWAKU
 62
     6
 10
1870.894672686545
 20
-1620.955817992396
 30
0.0
 11
1871.766894845274
 21
-1620.152650809439
 31
0.0
  0
LINE
  5
636
  8
ZUWAKU
 62
     6
 10
1875.561296236904
 20
-1619.099607993906
 30
0.0
 11
1875.862094600195
 21
-1618.670534986312
 31
0.0
  0
LINE
  5
637
  8
ZUWAKU
 62
     6
 10
1875.862094600195
 20
-1618.670534986312
 30
0.0
 11
1876.086958610443
 21
-1618.254786728679
 31
0.0
  0
LINE
  5
638
  8
ZUWAKU
 62
     6
 10
1876.086958610443
 20
-1618.254786728679
 30
0.0
 11
1877.785616381622
 21
-1619.953444499858
 31
0.0
  0
LINE
  5
639
  8
ZUWAKU
 62
     6
 10
1874.699954244168
 20
-1607.649347246915
 30
0.0
 11
1874.980163229892
 21
-1608.446767258799
 31
0.0
  0
LINE
  5
63A
  8
ZUWAKU
 62
     6
 10
1874.980163229892
 20
-1608.446767258799
 30
0.0
 11
1875.29917272957
 21
-1609.825027615426
 31
0.0
  0
LINE
  5
63B
  8
ZUWAKU
 62
     6
 10
1875.29917272957
 20
-1609.825027615426
 30
0.0
 11
1875.453560858714
 21
-1611.199817390873
 31
0.0
  0
LINE
  5
63C
  8
ZUWAKU
 62
     6
 10
1875.453560858714
 20
-1611.199817390873
 30
0.0
 11
1875.442791844951
 21
-1612.561377708041
 31
0.0
  0
LINE
  5
63D
  8
ZUWAKU
 62
     6
 10
1875.442791844951
 20
-1612.561377708041
 30
0.0
 11
1875.267310410995
 21
-1613.900303201325
 31
0.0
  0
LINE
  5
63E
  8
ZUWAKU
 62
     6
 10
1875.267310410995
 20
-1613.900303201325
 30
0.0
 11
1875.22171344066
 21
-1614.076191906964
 31
0.0
  0
LINE
  5
63F
  8
ZUWAKU
 62
     6
 10
1875.22171344066
 20
-1614.076191906964
 30
0.0
 11
1870.666934306619
 21
-1609.521412772939
 31
0.0
  0
LINE
  5
640
  8
ZUWAKU
 62
     6
 10
1834.612956520075
 20
-1599.626331481791
 30
0.0
 11
1834.841560642306
 21
-1599.36667669012
 31
0.0
  0
LINE
  5
641
  8
ZUWAKU
 62
     6
 10
1834.841560642306
 20
-1599.36667669012
 30
0.0
 11
1835.944324964284
 21
-1598.351219670282
 31
0.0
  0
LINE
  5
642
  8
ZUWAKU
 62
     6
 10
1835.944324964284
 20
-1598.351219670282
 30
0.0
 11
1837.181327838025
 21
-1597.419659254742
 31
0.0
  0
LINE
  5
643
  8
ZUWAKU
 62
     6
 10
1837.181327838025
 20
-1597.419659254742
 30
0.0
 11
1838.543526630885
 21
-1596.579622854667
 31
0.0
  0
LINE
  5
644
  8
ZUWAKU
 62
     6
 10
1838.543526630885
 20
-1596.579622854667
 30
0.0
 11
1840.020741064845
 21
-1595.838070906192
 31
0.0
  0
LINE
  5
645
  8
ZUWAKU
 62
     6
 10
1840.020741064845
 20
-1595.838070906192
 30
0.0
 11
1841.601762868322
 21
-1595.201190385154
 31
0.0
  0
LINE
  5
646
  8
ZUWAKU
 62
     6
 10
1841.601762868322
 20
-1595.201190385154
 30
0.0
 11
1843.274477611303
 21
-1594.674316087166
 31
0.0
  0
LINE
  5
647
  8
ZUWAKU
 62
     6
 10
1843.274477611303
 20
-1594.674316087166
 30
0.0
 11
1845.025990422018
 21
-1594.261874893548
 31
0.0
  0
LINE
  5
648
  8
ZUWAKU
 62
     6
 10
1845.025990422018
 20
-1594.261874893548
 30
0.0
 11
1846.84275152297
 21
-1593.967347719206
 31
0.0
  0
LINE
  5
649
  8
ZUWAKU
 62
     6
 10
1846.84275152297
 20
-1593.967347719206
 30
0.0
 11
1848.710680142405
 21
-1593.793244781688
 31
0.0
  0
LINE
  5
64A
  8
ZUWAKU
 62
     6
 10
1848.710680142405
 20
-1593.793244781688
 30
0.0
 11
1850.61528665173
 21
-1593.741091117775
 31
0.0
  0
LINE
  5
64B
  8
ZUWAKU
 62
     6
 10
1850.61528665173
 20
-1593.741091117775
 30
0.0
 11
1852.541793240917
 21
-1593.811420392877
 31
0.0
  0
LINE
  5
64C
  8
ZUWAKU
 62
     6
 10
1852.541793240917
 20
-1593.811420392877
 30
0.0
 11
1854.475253477112
 21
-1594.003775853779
 31
0.0
  0
LINE
  5
64D
  8
ZUWAKU
 62
     6
 10
1854.475253477112
 20
-1594.003775853779
 30
0.0
 11
1856.400670953193
 21
-1594.316717789071
 31
0.0
  0
LINE
  5
64E
  8
ZUWAKU
 62
     6
 10
1856.400670953193
 20
-1594.316717789071
 30
0.0
 11
1858.303117062623
 21
-1594.747837160873
 31
0.0
  0
LINE
  5
64F
  8
ZUWAKU
 62
     6
 10
1858.303117062623
 20
-1594.747837160873
 30
0.0
 11
1860.167847801015
 21
-1595.293775235762
 31
0.0
  0
LINE
  5
650
  8
ZUWAKU
 62
     6
 10
1860.167847801015
 20
-1595.293775235762
 30
0.0
 11
1861.980419416387
 21
-1595.950249137967
 31
0.0
  0
LINE
  5
651
  8
ZUWAKU
 62
     6
 10
1861.980419416387
 20
-1595.950249137967
 30
0.0
 11
1863.726802714758
 21
-1596.71208332936
 31
0.0
  0
LINE
  5
652
  8
ZUWAKU
 62
     6
 10
1863.726802714758
 20
-1596.71208332936
 30
0.0
 11
1865.393495863859
 21
-1597.573247138919
 31
0.0
  0
LINE
  5
653
  8
ZUWAKU
 62
     6
 10
1865.393495863859
 20
-1597.573247138919
 30
0.0
 11
1866.967635602814
 21
-1598.526898666777
 31
0.0
  0
LINE
  5
654
  8
ZUWAKU
 62
     6
 10
1866.967635602814
 20
-1598.526898666777
 30
0.0
 11
1868.437106811451
 21
-1599.565435729822
 31
0.0
  0
LINE
  5
655
  8
ZUWAKU
 62
     6
 10
1868.437106811451
 20
-1599.565435729822
 30
0.0
 11
1869.790650328519
 21
-1600.680555043909
 31
0.0
  0
LINE
  5
656
  8
ZUWAKU
 62
     6
 10
1869.790650328519
 20
-1600.680555043909
 30
0.0
 11
1869.911808324818
 21
-1600.797314998356
 31
0.0
  0
LINE
  5
657
  8
ZUWAKU
 62
     6
 10
1842.974460080835
 20
-1597.600268837315
 30
0.0
 11
1844.128736933038
 21
-1597.32846304762
 31
0.0
  0
LINE
  5
658
  8
ZUWAKU
 62
     6
 10
1844.128736933038
 20
-1597.32846304762
 30
0.0
 11
1845.998837097614
 21
-1597.025288724403
 31
0.0
  0
LINE
  5
659
  8
ZUWAKU
 62
     6
 10
1845.998837097614
 20
-1597.025288724403
 30
0.0
 11
1847.918628009295
 21
-1596.846351888354
 31
0.0
  0
LINE
  5
65A
  8
ZUWAKU
 62
     6
 10
1847.918628009295
 20
-1596.846351888354
 30
0.0
 11
1849.873772463966
 21
-1596.792814348554
 31
0.0
  0
LINE
  5
65B
  8
ZUWAKU
 62
     6
 10
1849.873772463966
 20
-1596.792814348554
 30
0.0
 11
1851.849673236236
 21
-1596.864946813482
 31
0.0
  0
LINE
  5
65C
  8
ZUWAKU
 62
     6
 10
1851.849673236236
 20
-1596.864946813482
 30
0.0
 11
1853.831577082588
 21
-1597.062121816468
 31
0.0
  0
LINE
  5
65D
  8
ZUWAKU
 62
     6
 10
1853.831577082588
 20
-1597.062121816468
 30
0.0
 11
1855.804682125333
 21
-1597.382814506905
 31
0.0
  0
LINE
  5
65E
  8
ZUWAKU
 62
     6
 10
1855.804682125333
 20
-1597.382814506905
 30
0.0
 11
1857.754246860628
 21
-1597.824611580557
 31
0.0
  0
LINE
  5
65F
  8
ZUWAKU
 62
     6
 10
1857.754246860628
 20
-1597.824611580557
 30
0.0
 11
1858.764012500215
 21
-1598.120241130723
 31
0.0
  0
LINE
  5
660
  8
ZUWAKU
 62
     6
 10
1872.192890812667
 20
-1603.217167098585
 30
0.0
 11
1873.058153252927
 21
-1604.393407669776
 31
0.0
  0
LINE
  5
661
  8
ZUWAKU
 62
     6
 10
1873.058153252927
 20
-1604.393407669776
 30
0.0
 11
1873.732729894357
 21
-1605.515320798372
 31
0.0
  0
ARC
  5
662
  8
ZUWAKU
 62
     6
 10
1869.995759042281
 20
-1609.402462450583
 30
0.0
 40
1.95241000610128
 50
114.8999999999998
 51
224.9999999999999
  0
LINE
  5
663
  8
ZUWAKU
 62
     6
 10
1868.615196687306
 20
-1610.78302480555
 30
0.0
 11
1874.428379028998
 21
-1616.473920689999
 31
0.0
  0
LINE
  5
664
  8
ZUWAKU
 62
     6
 10
1874.428379028998
 20
-1616.473920689999
 30
0.0
 11
1873.770227533885
 21
-1617.690768762085
 31
0.0
  0
LINE
  5
665
  8
ZUWAKU
 62
     6
 10
1873.770227533885
 20
-1617.690768762085
 30
0.0
 11
1873.371780943026
 21
-1618.259131818421
 31
0.0
  0
LINE
  5
666
  8
ZUWAKU
 62
     6
 10
1832.543863274438
 20
-1602.586762600072
 30
0.0
 11
1832.907767122667
 21
-1601.913945324071
 31
0.0
  0
LINE
  5
667
  8
ZUWAKU
 62
     6
 10
1868.079220307059
 20
-1609.02992505875
 30
0.0
 11
1867.513890038805
 21
-1611.938297160635
 31
0.0
  0
ARC
  5
668
  8
ZUWAKU
 62
     6
 10
1869.430428774027
 20
-1612.310834552452
 30
0.0
 40
1.95241000610128
 50
169.0
 51
224.9999999999982
  0
LINE
  5
669
  8
ZUWAKU
 62
     6
 10
1868.04986641906
 20
-1613.691396907435
 30
0.0
 11
1869.782011173156
 21
-1615.423541661531
 31
0.0
  0
ARC
  5
66A
  8
ZUWAKU
 62
     6
 10
1869.28500872537
 20
-1615.920544109317
 30
0.0
 40
0.7028676021964606
 50
248.9511701848126
 51
404.9999999999982
  0
LINE
  5
66B
  8
ZUWAKU
 62
     6
 10
1831.715358331953
 20
-1599.53020824995
 30
0.0
 11
1818.632248843052
 21
-1599.096196808395
 31
0.0
  0
ARC
  5
66C
  8
ZUWAKU
 62
     6
 10
1818.619302342639
 20
-1599.486464128829
 30
0.0
 40
0.3904820012202562
 50
88.10000000000002
 51
168.999999999998
  0
LINE
  5
66D
  8
ZUWAKU
 62
     6
 10
1818.235994595594
 20
-1599.411956650475
 30
0.0
 11
1817.658509820451
 21
-1602.382858269616
 31
0.0
  0
ARC
  5
66E
  8
ZUWAKU
 62
     6
 10
1818.041817567495
 20
-1602.457365747986
 30
0.0
 40
0.3904820012202562
 50
168.999999999998
 51
249.0000000000001
  0
LINE
  5
66F
  8
ZUWAKU
 62
     6
 10
1817.901881333379
 20
-1602.821912101229
 30
0.0
 11
1828.691022920396
 21
-1606.96347552538
 31
0.0
  0
ARC
  5
670
  8
ZUWAKU
 62
     6
 10
1828.271214218055
 20
-1608.057114585109
 30
0.0
 40
1.171446003660768
 50
47.38928590658141
 51
69.00000000000026
  0
ARC
  5
671
  8
ZUWAKU
 62
     6
 10
1820.902491972318
 20
-1599.874762769679
 30
0.0
 40
0.7028676021964598
 50
88.10000000000034
 51
249.0000000000005
  0
LINE
  5
672
  8
ZUWAKU
 62
     6
 10
1829.534363685842
 20
-1603.941100988824
 30
0.0
 11
1820.650606750914
 21
-1600.530946205509
 31
0.0
  0
LINE
  5
673
  8
ZUWAKU
 62
     6
 10
1834.612956520075
 20
-1599.626331481791
 30
0.0
 11
1869.911808324818
 21
-1600.797314998356
 31
0.0
  0
ARC
  5
674
  8
ZUWAKU
 62
     6
 10
1843.242965013255
 20
-1598.740527948547
 30
0.0
 40
1.171446003660768
 50
103.2504547662727
 51
268.1000000000001
  0
ARC
  5
675
  8
ZUWAKU
 62
     6
 10
1858.434864135374
 20
-1599.244495147136
 30
0.0
 40
1.171446003660768
 50
268.1000000000001
 51
433.6815281605987
  0
ARC
  5
676
  8
ZUWAKU
 62
     6
 10
1873.440636505782
 20
-1599.742287885446
 30
0.0
 40
1.171446003660768
 50
226.0590228224415
 51
268.1000000000001
  0
LINE
  5
677
  8
ZUWAKU
 62
     6
 10
1872.951887810676
 20
-1600.898164821657
 30
0.0
 11
1887.309763938788
 21
-1601.374464627997
 31
0.0
  0
ARC
  5
678
  8
ZUWAKU
 62
     6
 10
1887.296817438375
 20
-1601.764731948447
 30
0.0
 40
0.3904820012202562
 50
348.9999999999998
 51
448.1000000000001
  0
LINE
  5
679
  8
ZUWAKU
 62
     6
 10
1887.680125185419
 20
-1601.8392394268
 30
0.0
 11
1887.203010537298
 21
-1604.293781505884
 31
0.0
  0
ARC
  5
67A
  8
ZUWAKU
 62
     6
 10
1886.819702790254
 20
-1604.219274027514
 30
0.0
 40
0.3904820012202562
 50
294.9000000000004
 51
348.9999999999997
  0
LINE
  5
67B
  8
ZUWAKU
 62
     6
 10
1886.984109697247
 20
-1604.573458389413
 30
0.0
 11
1878.288220548252
 21
-1608.60995574026
 31
0.0
  0
ARC
  5
67C
  8
ZUWAKU
 62
     6
 10
1878.781441269216
 20
-1609.672508825956
 30
0.0
 40
1.171446003660768
 50
114.9000000000003
 51
186.4074391525502
  0
LINE
  5
67D
  8
ZUWAKU
 62
     6
 10
1876.739747581746
 20
-1606.702506703944
 30
0.0
 11
1885.481372252773
 21
-1602.644779630583
 31
0.0
  0
ARC
  5
67E
  8
ZUWAKU
 62
     6
 10
1885.185439820186
 20
-1602.007247779172
 30
0.0
 40
0.7028676021964606
 50
294.9000000000001
 51
448.0999999999976
  0
LINE
  5
67F
  8
ZUWAKU
 62
     6
 10
1874.699954244168
 20
-1607.649347246915
 30
0.0
 11
1870.666934306619
 21
-1609.521412772939
 31
0.0
  0
LINE
  5
680
  8
ZUWAKU
 62
     6
 10
1873.732729894357
 20
-1605.515320798372
 30
0.0
 11
1869.17372450733
 21
-1607.631540641106
 31
0.0
  0
LINE
  5
681
  8
ZUWAKU
 62
     6
 10
1832.907767122667
 20
-1601.913945324071
 30
0.0
 11
1872.192890812667
 21
-1603.217167098585
 31
0.0
  0
LINE
  5
682
  8
ZUWAKU
 62
     6
 10
1846.322420936597
 20
-1605.435355770106
 30
0.0
 11
1867.71000832023
 21
-1606.144855116544
 31
0.0
  0
LINE
  5
683
  8
ZUWAKU
 62
     6
 10
1873.371780943026
 20
-1618.259131818421
 30
0.0
 11
1832.543863274438
 21
-1602.586762600072
 31
0.0
  0
LINE
  5
684
  8
ZUWAKU
 62
     6
 10
1871.766894845274
 20
-1620.152650809439
 30
0.0
 11
1831.732858011425
 21
-1604.785023891639
 31
0.0
  0
LINE
  5
685
  8
ZUWAKU
 62
     6
 10
1833.236065441603
 20
-1608.708153886987
 30
0.0
 11
1866.414501652388
 21
-1621.444162287015
 31
0.0
  0
LINE
  5
686
  8
ZUWAKU
 62
     6
 10
1884.149233125891
 20
-1624.905785145019
 30
0.0
 11
1874.028446571231
 21
-1621.020779180405
 31
0.0
  0
LINE
  5
687
  8
ZUWAKU
 62
     6
 10
1873.768984484466
 20
-1624.267283742546
 30
0.0
 11
1885.656362851844
 21
-1628.830420768635
 31
0.0
  0
ARC
  5
688
  8
ZUWAKU
 62
     6
 10
1832.816256739263
 20
-1609.8017929467
 30
0.0
 40
1.171446003660768
 50
69.00000000000046
 51
193.0320838540865
  0
ARC
  5
689
  8
ZUWAKU
 62
     6
 10
1846.283581435375
 20
-1606.606157731424
 30
0.0
 40
1.171446003660768
 50
88.10000000000002
 51
249.0000000000013
  0
ARC
  5
68A
  8
ZUWAKU
 62
     6
 10
1865.994692950048
 20
-1622.537801346744
 30
0.0
 40
1.171446003660768
 50
291.9409771775833
 51
429.0000000000014
  0
ARC
  5
68B
  8
ZUWAKU
 62
     6
 10
1867.671168819007
 20
-1607.315657077862
 30
0.0
 40
1.171446003660768
 50
318.0853946908567
 51
448.1000000000001
  0
ARC
  5
68C
  8
ZUWAKU
 62
     6
 10
1873.349175782134
 20
-1625.360922802259
 30
0.0
 40
1.171446003660768
 50
68.99999999999984
 51
132.639760324211
  0
LINE
  5
68D
  8
ZUWAKU
 62
     6
 10
1886.724842040579
 20
-1625.735389916964
 30
0.0
 11
1886.179606832996
 21
-1628.540381893762
 31
0.0
  0
ARC
  5
68E
  8
ZUWAKU
 62
     6
 10
1885.796299085952
 20
-1628.465874415392
 30
0.0
 40
0.3904820012202562
 50
249.0000000000002
 51
348.9999999999995
  0
LINE
  5
68F
  8
ZUWAKU
 62
     6
 10
1875.561296236904
 20
-1619.099607993906
 30
0.0
 11
1877.785616381622
 21
-1619.953444499858
 31
0.0
  0
LINE
  5
690
  8
ZUWAKU
 62
     7
 10
1825.841710527638
 20
-1566.961886862321
 30
0.0
 11
1826.465212193769
 21
-1563.754248861845
 31
0.0
  0
LINE
  5
691
  8
ZUWAKU
 62
     7
 10
1829.152064703996
 20
-1563.754248861845
 30
0.0
 11
1826.465212193769
 21
-1563.754248861845
 31
0.0
  0
LINE
  5
692
  8
ZUWAKU
 62
     7
 10
1829.152064703996
 20
-1563.754248861845
 30
0.0
 11
1828.575555160184
 21
-1566.720133350677
 31
0.0
  0
ARC
  5
693
  8
ZUWAKU
 62
     7
 10
1829.197412159799
 20
-1566.841010106499
 30
0.0
 40
0.6334961073825501
 50
169.0000000000074
 51
270.0000000000001
  0
LINE
  5
694
  8
ZUWAKU
 62
     7
 10
1829.197412159799
 20
-1567.474506213878
 30
0.0
 11
1835.373400320314
 21
-1567.474506213878
 31
0.0
  0
LINE
  5
695
  8
ZUWAKU
 62
     7
 10
1835.373400320314
 20
-1567.474506213878
 30
0.0
 11
1834.848324232925
 21
-1570.175788507967
 31
0.0
  0
LINE
  5
696
  8
ZUWAKU
 62
     7
 10
1828.426057734026
 20
-1570.175788507967
 30
0.0
 11
1834.848324232925
 21
-1570.175788507967
 31
0.0
  0
ARC
  5
697
  8
ZUWAKU
 62
     7
 10
1828.426057734026
 20
-1570.809284615346
 30
0.0
 40
0.6334961073825501
 50
89.99999999999812
 51
168.9999999999999
  0
LINE
  5
698
  8
ZUWAKU
 62
     7
 10
1827.804200734411
 20
-1570.688407859524
 30
0.0
 11
1825.734409519953
 21
-1581.3365605641
 31
0.0
  0
LINE
  5
699
  8
ZUWAKU
 62
     7
 10
1823.047557009734
 20
-1581.3365605641
 30
0.0
 11
1825.734409519953
 21
-1581.3365605641
 31
0.0
  0
LINE
  5
69A
  8
ZUWAKU
 62
     7
 10
1823.047557009734
 20
-1581.3365605641
 30
0.0
 11
1825.070356101865
 21
-1570.930161371168
 31
0.0
  0
ARC
  5
69B
  8
ZUWAKU
 62
     7
 10
1824.44849910225
 20
-1570.809284615346
 30
0.0
 40
0.6334961073825501
 50
349.0000000000003
 51
450.0000000000005
  0
LINE
  5
69C
  8
ZUWAKU
 62
     7
 10
1824.44849910225
 20
-1570.175788507967
 30
0.0
 11
1818.272510941734
 21
-1570.175788507967
 31
0.0
  0
LINE
  5
69D
  8
ZUWAKU
 62
     7
 10
1818.272510941734
 20
-1570.175788507967
 30
0.0
 11
1818.797587029124
 21
-1567.474506213878
 31
0.0
  0
LINE
  5
69E
  8
ZUWAKU
 62
     7
 10
1818.797587029124
 20
-1567.474506213878
 30
0.0
 11
1825.219853528023
 21
-1567.474506213878
 31
0.0
  0
ARC
  5
69F
  8
ZUWAKU
 62
     7
 10
1825.219853528023
 20
-1566.841010106499
 30
0.0
 40
0.6334961073825501
 50
270.0000000000001
 51
349.00000000001
  0
LINE
  5
6A0
  8
ZUWAKU
 62
     7
 10
1819.969129104912
 20
-1572.930883663555
 30
0.0
 11
1819.679706834007
 21
-1574.419832169647
 31
0.0
  0
ARC
  5
6A1
  8
ZUWAKU
 62
     7
 10
1815.892864854363
 20
-1573.683744654984
 30
0.0
 40
3.857719145820621
 50
285.6048457891953
 51
348.9999999999995
  0
ARC
  5
6A2
  8
ZUWAKU
 62
     7
 10
1816.960335773088
 20
-1577.505747849023
 30
0.0
 40
0.1105553630262355
 50
105.6048457891947
 51
168.9999999999997
  0
LINE
  5
6A3
  8
ZUWAKU
 62
     7
 10
1816.110403705347
 20
-1581.298865973856
 30
0.0
 11
1816.851811623463
 21
-1577.484652891272
 31
0.0
  0
ARC
  5
6A4
  8
ZUWAKU
 62
     7
 10
1814.524014466306
 20
-1573.916317068454
 30
0.0
 40
7.551070067114093
 50
282.127509556616
 51
348.9999999999988
  0
LINE
  5
6A5
  8
ZUWAKU
 62
     7
 10
1821.936350108307
 20
-1575.357129161976
 30
0.0
 11
1822.407964458334
 21
-1572.930883663555
 31
0.0
  0
LINE
  5
6A6
  8
ZUWAKU
 62
     7
 10
1822.407964458334
 20
-1572.930883663555
 30
0.0
 11
1819.969129104912
 21
-1572.930883663555
 31
0.0
  0
LINE
  5
6A7
  8
ZUWAKU
 62
     7
 10
1830.137832533834
 20
-1572.930883663555
 30
0.0
 11
1829.324044669485
 21
-1577.117459289245
 31
0.0
  0
ARC
  5
6A8
  8
ZUWAKU
 62
     7
 10
1832.597553799138
 20
-1577.753765005836
 30
0.0
 40
3.334778401464306
 50
168.9999999999999
 51
269.9999999999885
  0
LINE
  5
6A9
  8
ZUWAKU
 62
     7
 10
1832.597553799138
 20
-1581.088543407287
 30
0.0
 11
1832.727099562045
 21
-1581.088543407287
 31
0.0
  0
LINE
  5
6AA
  8
ZUWAKU
 62
     7
 10
1832.727099562045
 20
-1581.088543407287
 30
0.0
 11
1833.445014255882
 21
-1577.395192485995
 31
0.0
  0
LINE
  5
6AB
  8
ZUWAKU
 62
     7
 10
1833.445014255882
 20
-1577.395192485995
 30
0.0
 11
1833.13197584107
 21
-1577.395192485995
 31
0.0
  0
ARC
  5
6AC
  8
ZUWAKU
 62
     7
 10
1833.13197584107
 20
-1576.017644908209
 30
0.0
 40
1.377547577791336
 50
168.9999999999997
 51
269.9999999999974
  0
LINE
  5
6AD
  8
ZUWAKU
 62
     7
 10
1831.779737692216
 20
-1575.754796438815
 30
0.0
 11
1832.328650730451
 21
-1572.930883663555
 31
0.0
  0
LINE
  5
6AE
  8
ZUWAKU
 62
     7
 10
1832.328650730451
 20
-1572.930883663555
 30
0.0
 11
1830.137832533834
 21
-1572.930883663555
 31
0.0
  0
LINE
  5
6AF
  8
ZUWAKU
 62
     7
 10
1843.481976709953
 20
-1564.250283175438
 30
0.0
 11
1843.243815324124
 21
-1565.475517289343
 31
0.0
  0
ARC
  5
6B0
  8
ZUWAKU
 62
     7
 10
1837.509290279851
 20
-1564.360838538466
 30
0.0
 40
5.841856400244049
 50
271.0152301125743
 51
349.000000000001
  0
LINE
  5
6B1
  8
ZUWAKU
 62
     7
 10
1836.898686996745
 20
-1573.875557166682
 30
0.0
 11
1837.612797348591
 21
-1570.201777888254
 31
0.0
  0
ARC
  5
6B2
  8
ZUWAKU
 62
     7
 10
1836.273940575592
 20
-1564.360838538466
 30
0.0
 40
9.535207321537518
 50
273.7567084122492
 51
341.5139853209125
  0
ARC
  5
6B3
  8
ZUWAKU
 62
     7
 10
1845.917949867568
 20
-1567.585061576906
 30
0.0
 40
0.6334961073825501
 50
89.9999999999993
 51
161.5139853209126
  0
LINE
  5
6B4
  8
ZUWAKU
 62
     7
 10
1845.917949867568
 20
-1566.951565469527
 30
0.0
 11
1850.372974567087
 21
-1566.951565469527
 31
0.0
  0
ARC
  5
6B5
  8
ZUWAKU
 62
     7
 10
1850.372974567087
 20
-1567.585061576906
 30
0.0
 40
0.6334961073825501
 50
346.2586933201409
 51
450.0000000000038
  0
ARC
  5
6B6
  8
ZUWAKU
 62
     7
 10
1838.567971006965
 20
-1564.698293900038
 30
0.0
 40
12.78633679072605
 50
277.267166461819
 51
346.258693320142
  0
LINE
  5
6B7
  8
ZUWAKU
 62
     7
 10
1839.465649269116
 20
-1581.084683660482
 30
0.0
 11
1840.185393758739
 21
-1577.381919255894
 31
0.0
  0
ARC
  5
6B8
  8
ZUWAKU
 62
     7
 10
1839.131159490811
 20
-1566.592992949702
 30
0.0
 40
14.49555045759609
 50
271.3222370437007
 51
349.0000000000002
  0
LINE
  5
6B9
  8
ZUWAKU
 62
     7
 10
1853.36038585903
 20
-1569.358874369943
 30
0.0
 11
1854.35339539467
 21
-1564.250283175438
 31
0.0
  0
LINE
  5
6BA
  8
ZUWAKU
 62
     7
 10
1843.481976709953
 20
-1564.250283175438
 30
0.0
 11
1854.35339539467
 21
-1564.250283175438
 31
0.0
  0
LINE
  5
6BB
  8
ZUWAKU
 62
     7
 10
1872.458647841285
 20
-1564.250283175438
 30
0.0
 11
1857.122920334111
 21
-1564.250283175438
 31
0.0
  0
LINE
  5
6BC
  8
ZUWAKU
 62
     7
 10
1856.597844246721
 20
-1566.951565469527
 30
0.0
 11
1862.029780936822
 21
-1566.951565469527
 31
0.0
  0
LINE
  5
6BD
  8
ZUWAKU
 62
     7
 10
1866.007339568606
 20
-1566.951565469527
 30
0.0
 11
1871.933571753895
 21
-1566.951565469527
 31
0.0
  0
LINE
  5
6BE
  8
ZUWAKU
 62
     7
 10
1860.05318522078
 20
-1578.387261113215
 30
0.0
 11
1854.12695303549
 21
-1578.387261113215
 31
0.0
  0
LINE
  5
6BF
  8
ZUWAKU
 62
     7
 10
1869.710697699469
 20
-1578.387261113215
 30
0.0
 11
1864.030743852563
 21
-1578.387261113215
 31
0.0
  0
LINE
  5
6C0
  8
ZUWAKU
 62
     7
 10
1853.601876948101
 20
-1581.088543407287
 30
0.0
 11
1869.18562161208
 21
-1581.088543407287
 31
0.0
  0
LINE
  5
6C1
  8
ZUWAKU
 62
     7
 10
1857.122920334111
 20
-1564.250283175438
 30
0.0
 11
1856.597844246721
 21
-1566.951565469527
 31
0.0
  0
ARC
  5
6C2
  8
ZUWAKU
 62
     7
 10
1862.029780936822
 20
-1567.585061576906
 30
0.0
 40
0.6334961073825501
 50
348.9999999999997
 51
450.0000000000051
  0
LINE
  5
6C3
  8
ZUWAKU
 62
     7
 10
1862.651637936437
 20
-1567.705938332728
 30
0.0
 11
1860.675042220394
 21
-1577.874641761658
 31
0.0
  0
ARC
  5
6C4
  8
ZUWAKU
 62
     7
 10
1860.05318522078
 20
-1577.753765005836
 30
0.0
 40
0.6334961073825501
 50
269.9999999999994
 51
348.9999999999999
  0
LINE
  5
6C5
  8
ZUWAKU
 62
     7
 10
1854.12695303549
 20
-1578.387261113215
 30
0.0
 11
1853.601876948101
 21
-1581.088543407287
 31
0.0
  0
LINE
  5
6C6
  8
ZUWAKU
 62
     7
 10
1869.18562161208
 20
-1581.088543407287
 30
0.0
 11
1869.710697699469
 21
-1578.387261113215
 31
0.0
  0
ARC
  5
6C7
  8
ZUWAKU
 62
     7
 10
1864.030743852563
 20
-1577.753765005836
 30
0.0
 40
0.6334961073825501
 50
169.0000000000001
 51
270.0000000000013
  0
LINE
  5
6C8
  8
ZUWAKU
 62
     7
 10
1863.408886852949
 20
-1577.632888249997
 30
0.0
 11
1865.385482568991
 21
-1567.464184821084
 31
0.0
  0
ARC
  5
6C9
  8
ZUWAKU
 62
     7
 10
1866.007339568606
 20
-1567.585061576906
 30
0.0
 40
0.6334961073825501
 50
90.00000000000003
 51
168.9999999999998
  0
LINE
  5
6CA
  8
ZUWAKU
 62
     7
 10
1871.933571753895
 20
-1566.951565469527
 30
0.0
 11
1872.458647841285
 21
-1564.250283175438
 31
0.0
  0
LINE
  5
6CB
  8
ZUWAKU
 62
     7
 10
1888.127319367448
 20
-1563.754248861845
 30
0.0
 11
1886.080464634865
 21
-1563.754248861845
 31
0.0
  0
ARC
  5
6CC
  8
ZUWAKU
 62
     7
 10
1886.080464634865
 20
-1563.864804224872
 30
0.0
 40
0.1105553630262355
 50
90.00000000000003
 51
151.0614722598196
  0
ARC
  5
6CD
  8
ZUWAKU
 62
     7
 10
1872.623391043551
 20
-1556.424289520773
 30
0.0
 40
15.26650835875534
 50
269.999999999989
 51
331.0614722598194
  0
LINE
  5
6CE
  8
ZUWAKU
 62
     7
 10
1872.623391043551
 20
-1571.690797879538
 30
0.0
 11
1871.888880786364
 21
-1571.690797879538
 31
0.0
  0
LINE
  5
6CF
  8
ZUWAKU
 62
     7
 10
1870.98730973273
 20
-1575.86013091973
 30
0.0
 11
1871.780356636748
 21
-1571.780258284799
 31
0.0
  0
ARC
  5
6D0
  8
ZUWAKU
 62
     7
 10
1871.888880786364
 20
-1571.801353242566
 30
0.0
 40
0.1105553630262355
 50
89.99999999998872
 51
168.9999999999997
  0
ARC
  5
6D1
  8
ZUWAKU
 62
     7
 10
1868.44367652134
 20
-1554.072040483342
 30
0.0
 40
21.93606516168395
 50
276.6588077484425
 51
292.9187661784221
  0
ARC
  5
6D2
  8
ZUWAKU
 62
     7
 10
1877.232842511888
 20
-1574.859913319907
 30
0.0
 40
0.6334961073825501
 50
349.0000000000001
 51
472.9187661783919
  0
LINE
  5
6D3
  8
ZUWAKU
 62
     7
 10
1877.854699511502
 20
-1574.980790075729
 30
0.0
 11
1876.619262879164
 21
-1581.3365605641
 31
0.0
  0
LINE
  5
6D4
  8
ZUWAKU
 62
     7
 10
1876.619262879164
 20
-1581.3365605641
 30
0.0
 11
1879.306115389383
 21
-1581.3365605641
 31
0.0
  0
LINE
  5
6D5
  8
ZUWAKU
 62
     7
 10
1879.306115389383
 20
-1581.3365605641
 30
0.0
 11
1881.060198596359
 21
-1572.312584757329
 31
0.0
  0
ARC
  5
6D6
  8
ZUWAKU
 62
     7
 10
1881.925515979053
 20
-1572.48078541767
 30
0.0
 40
0.8815132641854786
 50
126.2175779738571
 51
169.0
  0
ARC
  5
6D7
  8
ZUWAKU
 62
     7
 10
1868.44367652134
 20
-1554.072040483342
 30
0.0
 40
21.93606516168395
 50
306.2175779738571
 51
333.8078384872959
  0
LINE
  5
6D8
  8
ZUWAKU
 62
     2
 10
2069.429446393598
 20
-1573.258944092554
 30
0.0
 11
2072.218039257108
 21
-1558.912877477681
 31
0.0
  0
LINE
  5
6D9
  8
ZUWAKU
 62
     2
 10
2084.234908084005
 20
-1558.912877477681
 30
0.0
 11
2072.218039257108
 21
-1558.912877477681
 31
0.0
  0
LINE
  5
6DA
  8
ZUWAKU
 62
     2
 10
2084.234908084005
 20
-1558.912877477681
 30
0.0
 11
2081.656486105492
 21
-1572.177708622104
 31
0.0
  0
ARC
  5
6DB
  8
ZUWAKU
 62
     2
 10
2084.437723246355
 20
-1572.718326357329
 30
0.0
 40
2.833292708030003
 50
169.0000000000074
 51
270.0000000000001
  0
LINE
  5
6DC
  8
ZUWAKU
 62
     2
 10
2084.437723246355
 20
-1575.551619065353
 30
0.0
 11
2112.05964864753
 21
-1575.551619065353
 31
0.0
  0
LINE
  5
6DD
  8
ZUWAKU
 62
     2
 10
2112.05964864753
 20
-1575.551619065353
 30
0.0
 11
2109.711261290087
 21
-1587.633024676164
 31
0.0
  0
LINE
  5
6DE
  8
ZUWAKU
 62
     2
 10
2080.987863263978
 20
-1587.633024676164
 30
0.0
 11
2109.711261290087
 21
-1587.633024676164
 31
0.0
  0
ARC
  5
6DF
  8
ZUWAKU
 62
     2
 10
2080.987863263978
 20
-1590.466317384188
 30
0.0
 40
2.833292708030003
 50
89.99999999999812
 51
168.9999999999999
  0
LINE
  5
6E0
  8
ZUWAKU
 62
     2
 10
2078.206626123114
 20
-1589.925699648963
 30
0.0
 11
2068.949545792648
 21
-1637.549249439214
 31
0.0
  0
LINE
  5
6E1
  8
ZUWAKU
 62
     2
 10
2056.932676965751
 20
-1637.549249439214
 30
0.0
 11
2068.949545792648
 21
-1637.549249439214
 31
0.0
  0
LINE
  5
6E2
  8
ZUWAKU
 62
     2
 10
2056.932676965751
 20
-1637.549249439214
 30
0.0
 11
2065.979586411221
 21
-1591.006935119413
 31
0.0
  0
ARC
  5
6E3
  8
ZUWAKU
 62
     2
 10
2063.198349270357
 20
-1590.466317384188
 30
0.0
 40
2.833292708030003
 50
349.0000000000003
 51
450.0000000000005
  0
LINE
  5
6E4
  8
ZUWAKU
 62
     2
 10
2063.198349270357
 20
-1587.633024676164
 30
0.0
 11
2035.576423869174
 21
-1587.633024676164
 31
0.0
  0
LINE
  5
6E5
  8
ZUWAKU
 62
     2
 10
2035.576423869174
 20
-1587.633024676164
 30
0.0
 11
2037.924811226626
 21
-1575.551619065353
 31
0.0
  0
LINE
  5
6E6
  8
ZUWAKU
 62
     2
 10
2037.924811226626
 20
-1575.551619065353
 30
0.0
 11
2066.648209252726
 21
-1575.551619065353
 31
0.0
  0
ARC
  5
6E7
  8
ZUWAKU
 62
     2
 10
2066.648209252726
 20
-1572.718326357329
 30
0.0
 40
2.833292708030003
 50
270.0000000000001
 51
349.00000000001
  0
LINE
  5
6E8
  8
ZUWAKU
 62
     2
 10
2043.16449870347
 20
-1599.955106727285
 30
0.0
 11
2041.87006610926
 21
-1606.614385128208
 31
0.0
  0
ARC
  5
6E9
  8
ZUWAKU
 62
     2
 10
2024.933526733007
 20
-1603.322255368527
 30
0.0
 40
17.25353541735491
 50
285.6048457891953
 51
348.9999999999995
  0
ARC
  5
6EA
  8
ZUWAKU
 62
     2
 10
2029.707759020772
 20
-1620.416052242022
 30
0.0
 40
0.4944556095065139
 50
105.6048457891947
 51
168.9999999999997
  0
LINE
  5
6EB
  8
ZUWAKU
 62
     2
 10
2025.906462845842
 20
-1637.380661493037
 30
0.0
 11
2029.222387953471
 21
-1620.321705663916
 31
0.0
  0
ARC
  5
6EC
  8
ZUWAKU
 62
     2
 10
2018.811383632727
 20
-1604.362428647403
 30
0.0
 40
33.77193878487169
 50
282.127509556616
 51
348.9999999999988
  0
LINE
  5
6ED
  8
ZUWAKU
 62
     2
 10
2051.962836781687
 20
-1610.806418358866
 30
0.0
 11
2054.07211809118
 21
-1599.955106727285
 31
0.0
  0
LINE
  5
6EE
  8
ZUWAKU
 62
     2
 10
2054.07211809118
 20
-1599.955106727285
 30
0.0
 11
2043.16449870347
 21
-1599.955106727285
 31
0.0
  0
LINE
  5
6EF
  8
ZUWAKU
 62
     2
 10
2088.643725709797
 20
-1599.955106727285
 30
0.0
 11
2085.004083421423
 21
-1618.679443078631
 31
0.0
  0
ARC
  5
6F0
  8
ZUWAKU
 62
     2
 10
2099.644756724114
 20
-1621.525301681192
 30
0.0
 40
14.91469831883142
 50
168.9999999999999
 51
269.9999999999885
  0
LINE
  5
6F1
  8
ZUWAKU
 62
     2
 10
2099.644756724106
 20
-1636.440000000027
 30
0.0
 11
2100.224146338559
 21
-1636.440000000027
 31
0.0
  0
LINE
  5
6F2
  8
ZUWAKU
 62
     2
 10
2100.224146338559
 20
-1636.440000000027
 30
0.0
 11
2103.434998691599
 21
-1619.921596632518
 31
0.0
  0
LINE
  5
6F3
  8
ZUWAKU
 62
     2
 10
2103.434998691599
 20
-1619.921596632518
 30
0.0
 11
2102.034943588374
 21
-1619.921596632518
 31
0.0
  0
ARC
  5
6F4
  8
ZUWAKU
 62
     2
 10
2102.034943588374
 20
-1613.760555606949
 30
0.0
 40
6.16104102556652
 50
168.9999999999997
 51
269.9999999999974
  0
LINE
  5
6F5
  8
ZUWAKU
 62
     2
 10
2095.987098239345
 20
-1612.584973558377
 30
0.0
 11
2098.442095658337
 21
-1599.955106727285
 31
0.0
  0
LINE
  5
6F6
  8
ZUWAKU
 62
     2
 10
2098.442095658337
 20
-1599.955106727285
 30
0.0
 11
2088.643725709797
 21
-1599.955106727285
 31
0.0
  0
LINE
  5
6F7
  8
ZUWAKU
 62
     2
 10
2148.325018062649
 20
-1561.131376356038
 30
0.0
 11
2147.259848269294
 21
-1566.611199894115
 31
0.0
  0
ARC
  5
6F8
  8
ZUWAKU
 62
     2
 10
2121.612353671267
 20
-1561.625831965542
 30
0.0
 40
26.12753093078563
 50
271.0152301125743
 51
349.000000000001
  0
LINE
  5
6F9
  8
ZUWAKU
 62
     2
 10
2118.8814484465
 20
-1604.180131185535
 30
0.0
 11
2122.075285991875
 21
-1587.749261415092
 31
0.0
  0
ARC
  5
6FA
  8
ZUWAKU
 62
     2
 10
2116.08728845279
 20
-1561.625831965542
 30
0.0
 40
42.64593429830241
 50
273.7567084122492
 51
341.5139853209125
  0
ARC
  5
6FB
  8
ZUWAKU
 62
     2
 10
2159.219836363819
 20
-1576.046074674873
 30
0.0
 40
2.833292708030003
 50
89.9999999999993
 51
161.5139853209126
  0
LINE
  5
6FC
  8
ZUWAKU
 62
     2
 10
2159.219836363819
 20
-1573.212781966832
 30
0.0
 11
2179.144803302274
 21
-1573.212781966832
 31
0.0
  0
ARC
  5
6FD
  8
ZUWAKU
 62
     2
 10
2179.144803302274
 20
-1576.046074674873
 30
0.0
 40
2.833292708030003
 50
346.2586933201409
 51
450.0000000000038
  0
ARC
  5
6FE
  8
ZUWAKU
 62
     2
 10
2126.347272085621
 20
-1563.135091144969
 30
0.0
 40
57.18651522779312
 50
277.267166461819
 51
346.258693320142
  0
LINE
  5
6FF
  8
ZUWAKU
 62
     2
 10
2130.362111710782
 20
-1636.422737395925
 30
0.0
 11
2133.581147771678
 21
-1619.862232501263
 31
0.0
  0
ARC
  5
700
  8
ZUWAKU
 62
     2
 10
2128.866116015267
 20
-1571.609076918142
 30
0.0
 40
64.83092308187916
 50
271.3222370437007
 51
349.0000000000002
  0
LINE
  5
701
  8
ZUWAKU
 62
     2
 10
2192.505912440442
 20
-1583.97940022073
 30
0.0
 11
2196.947118382443
 21
-1561.131376356038
 31
0.0
  0
LINE
  5
702
  8
ZUWAKU
 62
     2
 10
2148.325018062649
 20
-1561.131376356038
 30
0.0
 11
2196.947118382443
 21
-1561.131376356038
 31
0.0
  0
LINE
  5
703
  8
ZUWAKU
 62
     2
 10
2277.922327442505
 20
-1561.131376356038
 30
0.0
 11
2209.333737217486
 21
-1561.131376356038
 31
0.0
  0
LINE
  5
704
  8
ZUWAKU
 62
     2
 10
2206.985349860043
 20
-1573.212781966832
 30
0.0
 11
2231.279526943682
 21
-1573.212781966832
 31
0.0
  0
LINE
  5
705
  8
ZUWAKU
 62
     2
 10
2249.069040937311
 20
-1573.212781966832
 30
0.0
 11
2275.573940085054
 21
-1573.212781966832
 31
0.0
  0
LINE
  5
706
  8
ZUWAKU
 62
     2
 10
2222.439260738843
 20
-1624.358594389233
 30
0.0
 11
2195.9343615911
 21
-1624.358594389233
 31
0.0
  0
LINE
  5
707
  8
ZUWAKU
 62
     2
 10
2265.63220125529
 20
-1624.358594389233
 30
0.0
 11
2240.228774732472
 21
-1624.358594389233
 31
0.0
  0
LINE
  5
708
  8
ZUWAKU
 62
     2
 10
2193.585974233648
 20
-1636.440000000027
 30
0.0
 11
2263.283813897846
 21
-1636.440000000027
 31
0.0
  0
LINE
  5
709
  8
ZUWAKU
 62
     2
 10
2209.333737217486
 20
-1561.131376356038
 30
0.0
 11
2206.985349860043
 21
-1573.212781966832
 31
0.0
  0
ARC
  5
70A
  8
ZUWAKU
 62
     2
 10
2231.279526943682
 20
-1576.046074674857
 30
0.0
 40
2.833292708030003
 50
348.9999999999997
 51
450.0000000000051
  0
LINE
  5
70B
  8
ZUWAKU
 62
     2
 10
2234.060764084545
 20
-1576.586692410098
 30
0.0
 11
2225.220497879715
 21
-1622.065919416417
 31
0.0
  0
ARC
  5
70C
  8
ZUWAKU
 62
     2
 10
2222.439260738843
 20
-1621.525301681192
 30
0.0
 40
2.833292708030003
 50
269.9999999999994
 51
348.9999999999999
  0
LINE
  5
70D
  8
ZUWAKU
 62
     2
 10
2195.9343615911
 20
-1624.358594389233
 30
0.0
 11
2193.585974233648
 21
-1636.440000000027
 31
0.0
  0
LINE
  5
70E
  8
ZUWAKU
 62
     2
 10
2263.283813897846
 20
-1636.440000000027
 30
0.0
 11
2265.63220125529
 21
-1624.358594389233
 31
0.0
  0
ARC
  5
70F
  8
ZUWAKU
 62
     2
 10
2240.228774732472
 20
-1621.525301681192
 30
0.0
 40
2.833292708030003
 50
169.0000000000001
 51
270.0000000000013
  0
LINE
  5
710
  8
ZUWAKU
 62
     2
 10
2237.447537591609
 20
-1620.984683945967
 30
0.0
 11
2246.287803796439
 21
-1575.505456939632
 31
0.0
  0
ARC
  5
711
  8
ZUWAKU
 62
     2
 10
2249.069040937311
 20
-1576.046074674873
 30
0.0
 40
2.833292708030003
 50
90.00000000000003
 51
168.9999999999998
  0
LINE
  5
712
  8
ZUWAKU
 62
     2
 10
2275.573940085054
 20
-1573.212781966832
 30
0.0
 11
2277.922327442505
 21
-1561.131376356038
 31
0.0
  0
LINE
  5
713
  8
ZUWAKU
 62
     2
 10
2347.999999999983
 20
-1558.912877477681
 30
0.0
 11
2338.845502410117
 21
-1558.912877477681
 31
0.0
  0
ARC
  5
714
  8
ZUWAKU
 62
     2
 10
2338.845502410117
 20
-1559.407333087184
 30
0.0
 40
0.4944556095065139
 50
90.00000000000003
 51
151.0614722598196
  0
ARC
  5
715
  8
ZUWAKU
 62
     2
 10
2278.659136569258
 20
-1526.129849911823
 30
0.0
 40
68.2790096195815
 50
269.999999999989
 51
331.0614722598194
  0
LINE
  5
716
  8
ZUWAKU
 62
     2
 10
2278.659136569242
 20
-1594.4088595314
 30
0.0
 11
2275.374061047248
 21
-1594.4088595314
 31
0.0
  0
LINE
  5
717
  8
ZUWAKU
 62
     2
 10
2271.34181102664
 20
-1613.056078926199
 30
0.0
 11
2274.888689979947
 21
-1594.808968562797
 31
0.0
  0
ARC
  5
718
  8
ZUWAKU
 62
     2
 10
2275.374061047248
 20
-1594.903315140903
 30
0.0
 40
0.4944556095065139
 50
89.99999999998872
 51
168.9999999999997
  0
ARC
  5
719
  8
ZUWAKU
 62
     2
 10
2259.965486301429
 20
-1515.609485275719
 30
0.0
 40
98.10840625724433
 50
276.6588077484425
 51
292.9187661784221
  0
ARC
  5
71A
  8
ZUWAKU
 62
     2
 10
2299.274772689274
 20
-1608.582635129184
 30
0.0
 40
2.833292708030003
 50
349.0000000000001
 51
472.9187661783919
  0
LINE
  5
71B
  8
ZUWAKU
 62
     2
 10
2302.056009830145
 20
-1609.12325286441
 30
0.0
 11
2296.530555828386
 21
-1637.549249439214
 31
0.0
  0
LINE
  5
71C
  8
ZUWAKU
 62
     2
 10
2296.530555828386
 20
-1637.549249439214
 30
0.0
 11
2308.547424655283
 21
-1637.549249439214
 31
0.0
  0
LINE
  5
71D
  8
ZUWAKU
 62
     2
 10
2308.547424655283
 20
-1637.549249439214
 30
0.0
 11
2316.392510207774
 21
-1597.189783054483
 31
0.0
  0
ARC
  5
71E
  8
ZUWAKU
 62
     2
 10
2320.262616751368
 20
-1597.942055560824
 30
0.0
 40
3.942542147208842
 50
126.2175779738571
 51
169.0
  0
ARC
  5
71F
  8
ZUWAKU
 62
     2
 10
2259.965486301429
 20
-1515.609485275719
 30
0.0
 40
98.10840625724433
 50
306.2175779738571
 51
333.8078384872959
  0
INSERT
  5
720
  8
0
  6
CONTINUOUS
  2
DC_GROUP_1
 10
0.0
 20
0.0
 30
0.0
  0
INSERT
  5
721
  8
0
  6
CONTINUOUS
  2
DC_GROUP_25
 10
0.0
 20
0.0
 30
0.0
  0
INSERT
  5
722
  8
0
  6
CONTINUOUS
  2
DC_GROUP_51
 10
0.0
 20
0.0
 30
0.0
  0
INSERT
  5
723
  8
0
  6
CONTINUOUS
  2
DC_GROUP_58
 10
0.0
 20
0.0
 30
0.0
  0
INSERT
  5
724
  8
0
  6
CONTINUOUS
  2
DC_GROUP_59
 10
0.0
 20
0.0
 30
0.0
  0
INSERT
  5
725
  8
0
  6
CONTINUOUS
  2
DC_GROUP_60
 10
0.0
 20
0.0
 30
0.0
  0
INSERT
  5
726
  8
0
  6
CONTINUOUS
  2
DC_GROUP_64
 10
0.0
 20
0.0
 30
0.0
  0
INSERT
  5
727
  8
0
  6
CONTINUOUS
  2
DC_GROUP_66
 10
0.0
 20
0.0
 30
0.0
  0
INSERT
  5
728
  8
0
  6
CONTINUOUS
  2
DC_GROUP_70
 10
0.0
 20
0.0
 30
0.0
  0
INSERT
  5
729
  8
0
  6
CONTINUOUS
  2
DC_GROUP_75
 10
0.0
 20
0.0
 30
0.0
  0
INSERT
  5
72A
  8
ZUWAKU
  6
CONTINUOUS
  2
DC_GROUP_49
 10
0.0
 20
0.0
 30
0.0
  0
INSERT
  5
72B
  8
ZUWAKU
  6
CONTINUOUS
  2
DC_GROUP_50
 10
0.0
 20
0.0
 30
0.0
  0
INSERT
  5
72C
  8
ZUWAKU
  6
CONTINUOUS
  2
DC_GROUP_79
 10
0.0
 20
0.0
 30
0.0
  0
INSERT
  5
72D
  8
ZUWAKU
  6
CONTINUOUS
  2
DC_GROUP_80
 10
0.0
 20
0.0
 30
0.0
  0
CIRCLE
  5
72E
  8
0
 62
     3
 10
1307.218792833804
 20
773.8744560058927
 30
0.0
 40
3.499999999999998
  0
LINE
  5
72F
  8
0
 62
     3
 10
1318.835499155138
 20
788.6156274058823
 30
0.0
 11
1323.176703596811
 21
763.995433580577
 31
0.0
  0
ARC
  5
730
  8
0
 62
     3
 10
1398.775613526323
 20
841.9046422100126
 30
0.0
 40
0.9999999999999999
 50
325.0000000000078
 51
505.0000000000078
  0
LINE
  5
731
  8
0
 62
     3
 10
1399.594765570612
 20
841.3310657736619
 30
0.0
 11
1393.113351839844
 21
832.074647673196
 31
0.0
  0
LINE
  5
732
  8
0
 62
     3
 10
1393.113351839846
 20
832.0746476731966
 30
0.0
 11
1392.294199795557
 21
832.6482241095472
 31
0.0
  0
LINE
  5
733
  8
0
 62
     3
 10
1398.775613526323
 20
841.9046422100126
 30
0.0
 11
1371.406995870553
 21
802.8182054576331
 31
0.0
  0
LINE
  5
734
  8
0
 62
     3
 10
1370.587843826262
 20
803.3917818939818
 30
0.0
 11
1397.956461482035
 21
842.4782186463641
 31
0.0
  0
ARC
  5
735
  8
0
 62
     3
 10
1355.02395498477
 20
814.2897341846525
 30
0.0
 40
20.0
 50
280.0
 51
325.0000000000002
  0
ARC
  5
736
  8
0
 62
     3
 10
1355.023954984771
 20
814.2897341846525
 30
0.0
 40
19.0
 50
280.0
 51
325.0000000000015
  0
LINE
  5
737
  8
0
 62
     3
 10
1358.496918538109
 20
794.5935791244084
 30
0.0
 11
1319.009147332805
 21
787.6308196528704
 31
0.0
  0
LINE
  5
738
  8
0
 62
     3
 10
739.6730792991453
 20
686.4936665728666
 30
0.0
 11
1358.323270360441
 21
795.5783868774203
 31
0.0
  0
LINE
  5
739
  8
0
 62
     3
 10
783.5020549461211
 20
668.8362322190993
 30
0.0
 11
1323.176703596811
 21
763.995433580577
 31
0.0
  0
CIRCLE
  5
73A
  8
0
 62
     3
 10
795.1187612674554
 20
683.5774036190888
 30
0.0
 40
3.499999999999998
  0
LINE
  5
73B
  8
0
 62
     3
 10
779.1608505044475
 20
693.4564260444046
 30
0.0
 11
783.5020549461211
 21
668.8362322190993
 31
0.0
  0
ARC
  5
73C
  8
0
 62
     3
 10
700.2135363552185
 20
638.6090270509141
 30
0.0
 40
1.0
 50
144.9999999999954
 51
324.9999999999954
  0
LINE
  5
73D
  8
0
 62
     3
 10
701.0326883995082
 20
638.0354506145633
 30
0.0
 11
707.514102130274
 21
647.2918687150283
 31
0.0
  0
LINE
  5
73E
  8
0
 62
     3
 10
707.514102130274
 20
647.2918687150283
 30
0.0
 11
706.6949500859861
 21
647.8654451513791
 31
0.0
  0
LINE
  5
73F
  8
0
 62
     3
 10
700.2135363552185
 20
638.6090270509141
 30
0.0
 11
727.5821540109915
 21
677.6954638032927
 31
0.0
  0
LINE
  5
740
  8
0
 62
     3
 10
726.7630019667037
 20
678.2690402396444
 30
0.0
 11
699.3943843109297
 21
639.1826034872635
 31
0.0
  0
ARC
  5
741
  8
0
 62
     3
 10
743.1460428524839
 20
666.7975115126225
 30
0.0
 40
20.0
 50
100.0
 51
145.0000000000003
  0
ARC
  5
742
  8
0
 62
     3
 10
743.1460428524821
 20
666.7975115126225
 30
0.0
 40
19.0
 50
100.0
 51
145.0000000000015
  0
LINE
  5
743
  8
0
 62
     3
 10
779.3344986821145
 20
692.4716182913923
 30
0.0
 11
739.8467274768105
 21
685.5088588198547
 31
0.0
  0
LINE
  5
744
  8
0
 62
     3
 10
125.2476233177519
 20
788.6156274058818
 30
0.0
 11
125.2476233177519
 21
693.4564260444041
 31
0.0
  0
LINE
  5
745
  8
0
 62
     3
 10
123.2476233171288
 20
669.8898811784602
 30
0.0
 11
82.31058438036388
 21
637.6090270509141
 31
0.0
  0
LINE
  5
746
  8
0
 62
     3
 10
82.31058438036388
 20
842.9046422100126
 30
0.0
 11
123.2476233171288
 21
810.6237880824666
 31
0.0
  0
LINE
  5
747
  8
0
 62
     3
 10
125.2476233177519
 20
693.4564260444041
 30
0.0
 11
123.2476233171288
 21
693.4564260444041
 31
0.0
  0
LINE
  5
748
  8
0
 62
     3
 10
125.2476233177519
 20
788.6156274058818
 30
0.0
 11
123.2476233171288
 21
788.6156274058818
 31
0.0
  0
LINE
  5
749
  8
0
 62
     3
 10
123.2476233171288
 20
810.6237880824666
 30
0.0
 11
123.2476233171288
 21
788.6156274058818
 31
0.0
  0
LINE
  5
74A
  8
0
 62
     3
 10
123.2476233171288
 20
669.8898811784602
 30
0.0
 11
123.2476233171288
 21
693.4564260444041
 31
0.0
  0
LINE
  5
74B
  8
0
 62
     3
 10
-1931.815337742135
 20
637.6090270509141
 30
0.0
 11
82.31058438036388
 21
637.6090270509141
 31
0.0
  0
LINE
  5
74C
  8
0
 62
     3
 10
-1974.752376679523
 20
788.6156274058818
 30
0.0
 11
-1974.752376679523
 21
693.4564260444041
 31
0.0
  0
LINE
  5
74D
  8
0
 62
     3
 10
-1972.7523766789
 20
669.8898811784602
 30
0.0
 11
-1931.815337742135
 21
637.6090270509141
 31
0.0
  0
LINE
  5
74E
  8
0
 62
     3
 10
-1931.815337742135
 20
842.9046422100126
 30
0.0
 11
-1972.7523766789
 21
810.6237880824666
 31
0.0
  0
LINE
  5
74F
  8
0
 62
     3
 10
-1974.752376679523
 20
693.4564260444041
 30
0.0
 11
-1972.7523766789
 21
693.4564260444041
 31
0.0
  0
LINE
  5
750
  8
0
 62
     3
 10
-1974.752376679523
 20
788.6156274058818
 30
0.0
 11
-1972.7523766789
 21
788.6156274058818
 31
0.0
  0
LINE
  5
751
  8
0
 62
     3
 10
-1972.7523766789
 20
810.6237880824666
 30
0.0
 11
-1972.7523766789
 21
788.6156274058818
 31
0.0
  0
LINE
  5
752
  8
0
 62
     3
 10
-1972.7523766789
 20
669.8898811784602
 30
0.0
 11
-1972.7523766789
 21
693.4564260444041
 31
0.0
  0
LINE
  5
753
  8
0
 62
     3
 10
-1931.815337742135
 20
842.9046422100126
 30
0.0
 11
82.31058438036388
 21
842.9046422100126
 31
0.0
  0
LINE
  5
754
  8
0
  6
DASHED2
 62
   190
 10
783.3284067684541
 20
669.8210399721116
 30
0.0
 11
1323.003055419145
 21
764.9802413335893
 31
0.0
  0
LINE
  5
755
  8
0
  6
DASHED2
 62
   190
 10
1319.009147332805
 20
787.6308196528704
 30
0.0
 11
779.3344986821145
 21
692.4716182913923
 31
0.0
  0
LINE
  5
756
  8
0
  6
DASHED2
 62
   190
 10
1321.440221820142
 20
773.8435111106993
 30
0.0
 11
781.7655731694518
 21
678.6843097492216
 31
0.0
  0
INSERT
  5
757
  8
LAYER0010
  6
CONTINUOUS
  2
DC_GROUP_56
 10
0.0
 20
0.0
 30
0.0
  0
INSERT
  5
758
  8
LAYER0010
  6
CONTINUOUS
  2
DC_GROUP_57
 10
0.0
 20
0.0
 30
0.0
  0
LINE
  5
759
  8
0
 62
     9
 10
123.2476233171288
 20
796.94500805257
 30
0.0
 11
-1972.7523766789
 21
796.94500805257
 31
0.0
  0
LINE
  5
75A
  8
0
 62
     9
 10
-1972.7523766789
 20
685.0551179674459
 30
0.0
 11
123.2476233171288
 21
685.0551179674459
 31
0.0
  0
INSERT
  5
75B
  8
｡｡@@
  6
CONTINUOUS
  2
DA_IMAGEDIMGROUP_1
 10
0.0
 20
0.0
 30
0.0
  0
INSERT
  5
75C
  8
｡｡@@
  6
CONTINUOUS
  2
DA_IMAGEDIMGROUP_2
 10
0.0
 20
0.0
 30
0.0
  0
INSERT
  5
75D
  8
｡｡@@
  6
CONTINUOUS
  2
DA_IMAGEDIMGROUP_3
 10
0.0
 20
0.0
 30
0.0
  0
INSERT
  5
75E
  8
｡｡@@
  6
CONTINUOUS
  2
DA_IMAGEDIMGROUP_4
 10
0.0
 20
0.0
 30
0.0
  0
INSERT
  5
75F
  8
｡｡@@
  6
CONTINUOUS
  2
DA_IMAGEDIMGROUP_5
 10
0.0
 20
0.0
 30
0.0
  0
INSERT
  5
760
  8
｡｡@@
  6
CONTINUOUS
  2
DA_IMAGEDIMGROUP_6
 10
0.0
 20
0.0
 30
0.0
  0
INSERT
  5
761
  8
｡｡@@
  6
CONTINUOUS
  2
DA_IMAGEDIMGROUP_7
 10
0.0
 20
0.0
 30
0.0
  0
INSERT
  5
762
  8
｡｡@@
  6
CONTINUOUS
  2
DA_IMAGEDIMGROUP_8
 10
0.0
 20
0.0
 30
0.0
  0
INSERT
  5
763
  8
｡｡@@
  6
CONTINUOUS
  2
DA_IMAGEDIMGROUP_9
 10
0.0
 20
0.0
 30
0.0
  0
INSERT
  5
764
  8
｡｡@@
  6
CONTINUOUS
  2
DA_IMAGEDIMGROUP_10
 10
0.0
 20
0.0
 30
0.0
  0
INSERT
  5
765
  8
LAYER0015
  6
CONTINUOUS
  2
DC_GROUP_61
 10
0.0
 20
0.0
 30
0.0
  0
INSERT
  5
766
  8
LAYER0015
  6
CONTINUOUS
  2
DC_GROUP_62
 10
0.0
 20
0.0
 30
0.0
  0
INSERT
  5
767
  8
LAYER0015
  6
CONTINUOUS
  2
DC_GROUP_63
 10
0.0
 20
0.0
 30
0.0
  0
INSERT
  5
768
  8
LAYER0015
  6
CONTINUOUS
  2
DA_IMAGEDIMGROUP_11
 10
0.0
 20
0.0
 30
0.0
  0
INSERT
  5
769
  8
LAYER0015
  6
CONTINUOUS
  2
DA_IMAGEDIMGROUP_12
 10
0.0
 20
0.0
 30
0.0
  0
INSERT
  5
76A
  8
LAYER0015
  6
CONTINUOUS
  2
DA_IMAGEDIMGROUP_13
 10
0.0
 20
0.0
 30
0.0
  0
INSERT
  5
76B
  8
LAYER0015
  6
CONTINUOUS
  2
DA_IMAGEDIMGROUP_14
 10
0.0
 20
0.0
 30
0.0
  0
INSERT
  5
76C
  8
LAYER0015
  6
CONTINUOUS
  2
DC_GROUP_65
 10
0.0
 20
0.0
 30
0.0
  0
INSERT
  5
76D
  8
LAYER0015
  6
CONTINUOUS
  2
DC_GROUP_74
 10
0.0
 20
0.0
 30
0.0
  0
ARC
  5
76E
  8
LAYER0016
 62
     3
 10
2076.730316258434
 20
-403.4665391852955
 30
0.0
 40
8.879999999999999
 50
359.9999999998657
 51
449.9999999998929
  0
INSERT
  5
76F
  8
LAYER0017
  6
CONTINUOUS
  2
DA_IMAGEDIMGROUP_15
 10
0.0
 20
0.0
 30
0.0
  0
INSERT
  5
770
  8
LAYER0017
  6
CONTINUOUS
  2
DA_IMAGEDIMGROUP_16
 10
0.0
 20
0.0
 30
0.0
  0
INSERT
  5
771
  8
LAYER0017
  6
CONTINUOUS
  2
DA_IMAGEDIMGROUP_17
 10
0.0
 20
0.0
 30
0.0
  0
INSERT
  5
772
  8
LAYER0017
  6
CONTINUOUS
  2
DC_GROUP_78
 10
0.0
 20
0.0
 30
0.0
  0
TEXT
  5
773
  8
ZUWAKU
 62
   190
 10
-2236.600250920252
 20
-1606.014606741573
 30
0.0
 40
35.99999999999997
  1
改訂
 41
0.6666666666666661
  7
FDASTYLE0
 72
     5
 11
-2179.000250920252
 21
-1606.014606741573
 31
0.0
  0
TEXT
  5
774
  8
ZUWAKU
 62
   190
 10
-2092.600250920252
 20
-1606.014606741574
 30
0.0
 40
35.99999999999997
  1
2011.7.20　　誤記訂正　　岡田
 41
0.7238095238095238
  7
FDASTYLE0
 72
     5
 11
-1545.400250920253
 21
-1606.014606741574
 31
0.0
  0
LINE
  5
775
  8
ZUWAKU
 62
   190
 10
-2245.019662921348
 20
-1616.814606741573
 30
0.0
 11
-1511.354715417204
 21
-1616.814606741573
 31
0.0
  0
VIEWPORT
  5
33
 67
     1
  8
0
 10
18.9999999999859
 20
8.49999999997317
 30
0.0
 40
14082.0
 41
10023.0
 68
     1
 69
     1
1001
ACAD
1000
MVIEW
1002
{
1070
    16
1010
0.0
1020
0.0
1030
0.0
1020
0.0
1030
0.0
1010
0.0
1020
0.0
1030
1.0
1020
0.0
1030
1.0
1040
0.0
1040
10023.0
1040
18.9999999999859
1040
8.49999999997317
1040
50.0
1040
0.0
1040
0.0
1070
     0
1070
   100
1070
     0
1070
     1
1070
     0
1070
     0
1070
     0
1070
     0
1040
0.0
1040
0.0
1040
0.0
1040
0.5
1040
0.5
1040
0.0
1040
0.0
1070
     0
1002
{
1002
}
1002
}
  0
ENDSEC
  0
EOF
